Oops, an error
Loading. Please wait.

Fuse tab

version 1
version 1

Whole song

1,122 views 1 this week
2 commentsread comments
1 2 3 4 5
1 last vote to show rating
add to favorites
×
Save as Personal and add changes to this tab that will be seen only by you. Learn more ›
×
You can save this tab as Personal to edit and correct it or add notes. All changes will be seen only by you. Learn more »
launch autoscroll
font size
0
reset
how to read this tab
guitar tuner
edit
Autoscroll
slow
fast
+/-
esc
set tempo
stop
Here it's a tab that I made for an old LP song, from the time they were called "Xero".
I'm not sure if this tab it's 100% because the quality of the guitar it's really shitty. 
sounds more like static noise than a guitar so it's pretty hard to hear every note 
Still, here we go.
Tunning Db : Db, Ab, Db, Gb, Bb, Eb.

[Distortion] Heavy Intro : Repeat X4 times

Eb|------------------------------------|
Bb|------------------------------------|
Gb|----9--9--7--7-7h10--10-------------|
Db|----9--9--7--7-7h10--10-------------|
Ab|----7--7--5--5-5h8---8--------------|
Db|------------------------------------|


Verse : No Guitar (there are only few FX sounds through the whole verse)


[Distortion] Pre-Chorus : Repeat X4 times

Eb|------------------------------------|
Bb|------------------------------------|
Gb|----9--9--7--7-7h10--10-------------|
Db|----9--9--7--7-7h10--10-------------|
Ab|----7--7--5--5-5h8---8--------------|
Db|------------------------------------|

[Distortion] Chorus : Repeat X4 times

Eb|------------------------------------|
Bb|------------------------------------|
Gb|------------------------------------|
Db|----2--2/9--9/12--12--4h5p0--4-2----|
Ab|----2--2/9--9/12--12--4h5p0--4-2----|
Db|----2--2/9--9/12--12--4h5p0--4-2----|


[Distortion] Verse 2 (There is a small part in the second verse, just before the pre-chorus)

Eb|------------------------------------|
Bb|------------------------------------|
Gb|------------------------------------|
Db|----2--2--9--9--9-12----------------|
Ab|----2--2--9--9--9-12----------------|
Db|----2--2--9--9--9-12----------------|


[Distortion] Pre-Chorus : Repeat X4 times

Eb|------------------------------------|
Bb|------------------------------------|
Gb|----9--9--7--7-7h10--10-------------|
Db|----9--9--7--7-7h10--10-------------|
Ab|----7--7--5--5-5h8---8--------------|
Db|------------------------------------|


[Distortion] Chorus : Repeat X4 times

Eb|------------------------------------|
Bb|------------------------------------|
Gb|------------------------------------|
Db|----2--2/9--9/12--12--4h5p0--4-2----|
Ab|----2--2/9--9/12--12--4h5p0--4-2----|
Db|----2--2/9--9/12--12--4h5p0--4-2----|


[Clean or Acoustic Guitar] Bridge 1 : Repeat X8 times (I'm not sure if Brad used an 
guitar set on the clean channel or an acoustic guitar, it sounds really good)

Eb|------------------------------------|
Bb|---------------3--------------------|
Gb|--------4p2p0-----------------------|
Db|----2-------------5p4---------------|
Ab|------------------------------------|
Db|------------------------------------|


[Distortion] Intro - Bridge 2 (All Palm Muted)

Eb|------------------------------------|
Bb|------------------------------------|
Gb|------------------------------------|
Db|----2-2--2--2-2---------------------|
Ab|----2-2--2--2-2---------------------|
Db|----2-2--2--2-2---------------------|


[Distortion] Bridge 2 : Repeat X8 times

Eb|------------------------------------|
Bb|------------------------------------|
Gb|------------------------------------|
Db|----2--2--9--9--9-12----------------|
Ab|----2--2--9--9--9-12----------------|
Db|----2--2--9--9--9-12----------------|


[Distortion] Final Chorus : Repeat X4 times

Eb|------------------------------------|
Bb|------------------------------------|
Gb|------------------------------------|
Db|----2--2/9--9/12--12--4h5p0--4-2--2-|
Ab|----2--2/9--9/12--12--4h5p0--4-2--2-|
Db|----2--2/9--9/12--12--4h5p0--4-2--2-| end...:)

            
            
Suggest correction
Creating personal tab
Creating personal tab
You can edit any tab online and save it as your Personal.

You can edit, replace or remove any tab part or add personal notes – all changes will be seen only by you.

Personal tabs can be accessed anytime from any device, even offline.
Learn more »
Give kudos to tab author, rate the tab!
1 2 3 4 5
comments
print report bad tab
2 comments total.
0 reply
Bennington_Hahn 72 Nov 01, 2008 11:03 AM

Thats actually not bad! nice job. I've always wondered wat the clean part in the breakdown was.

0 reply
JohnCanny03820 10 Mar 07, 2009 08:49 PM

I play the chorus like this.

Eb|------------------------------------|
Bb|------------------------------------|
Gb|-9-9--4-4--5-5--7-7-7---------------|
Db|-9-9--4-4--5-5--7-7-7--4-4--5-5-4---|
Ab|-7-7--2-2--3-3--5-5-5--4-4--5-5-4---|
Db|-----------------------4-4--5-5-4---|
[ ]
That part sounds right during the 2nd verse too.

Awesome Tab though. 5/5

guest
Wanna post a correction for this tab? Suggest correction