Oops, an error
Loading. Please wait.
We have an official Given Up tab made by UG professional guitarists. Check out the tab »
×
79,264 views 27 this week
6 commentsread comments
1 2 3 4 5
x 9
add to favorites
×
Save as Personal and add changes to this tab that will be seen only by you. Learn more ›
×
You can save this tab as Personal to edit and correct it or add notes. All changes will be seen only by you. Learn more »
launch autoscroll
font size
0
reset
how to read this tab
guitar tuner
backing track
0:00
0:00
edit
Autoscroll
slow
fast
+/-
esc
set tempo
stop
Artist: Linkin Park
Song: Given Up
Album: Minutes to Midnight
Tabbed by: Erik Acosta (me12345)
Email: salivafan1@sbcglobal.net

[Intro] 
(0:04)
E|-------------------------------------------------------------------------------| (Guitar 2 
B|-------------------------------------------------------------------------------| enters on 
G|-------------------------------------------------------3-----------------------| second) 
D|-2-x-x-x-x-x-x-x-x-x32-x-x-x-x-x-x-x-x-x32-x-x-x-x-x-x-x-x-x-x-x-x-x--x-x3-2x0-|     
A|-2-x-x-x-x-x-x-x-x-x32-x-x-x-x-x-x-x-x-x32-x-x-x-x-x-x-x-x-x-x-x-x-x--x-x1-2x0-| 
D|-2-x-x-x-x-x-x-x-x-x32-x-x-x-x-x-x-x-x-x32-x-x-x-x-x-x-x-x-x-x-x-x-x--x-x--2x0-| x2

[Verse 1]
(0:23)
(Optional Bass Part)
E|----------------------------------------------------------------------------------------|
B|----------------------------------------------------------------------------------------|
G|----------------------------------------------------------------------------------------|
D|----------------------------------------------------------------------------------------|
A|----------------------------------------------------------------------------------2-----|x2
D|-2-2-2-2-2-2-2-2-2-2-3-2-2-2-2-2-2-2-2-2-2-3-0-0-0-0-0-0-0-0-0-0-0-2-2-2-2-2-2-2--2-2-0-|

E|--------------------|
B|--------------------|
G|--------------------|
D|--------------------|
A|-2-2-2-2-2-2-2-2-2--|
D|-2-2-2-2-2-2-2-2-2--|

[Chorus] 
(0:47)
E|-----------------------------------------------------------------|
B|-----------------------------------------------------------------|
G|-----------------------------------------------------------------|
D|-2-2-2-2-2-2-2-2-5-5-5-5-5-5-5-5-0-0-0-0-0-0-0-0-7-7-7-7-7-7-7-7-|
A|-2-2-2-2-2-2-2-2-5-5-5-5-5-5-5-5-0-0-0-0-0-0-0-0-7-7-7-7-7-7-7-7-|x3
D|-2-2-2-2-2-2-2-2-5-5-5-5-5-5-5-5-0-0-0-0-0-0-0-0-7-7-7-7-7-7-7-7-|

E|-----------------------------------------------------------------|
B|-----------------------------------------------------------------|
G|-----------------------------------------------------------------|
D|-2-2-2-2-2-2-2-2-5-5-5-5-5-5-5-5-0-0-0-0-0-0-0-0-0-0-0-0-0-0-0-0-|
A|-2-2-2-2-2-2-2-2-5-5-5-5-5-5-5-5-0-0-0-0-0-0-0-0-0-0-0-0-0-0-0-0-|
D|-2-2-2-2-2-2-2-2-5-5-5-5-5-5-5-5-0-0-0-0-0-0-0-0-0-0-0-0-0-0-0-0-|

E|----------------------|                  |---|
B|----------------------|    this is the   |---|
G|-----------------3----|   FINAL note of  |---|
D|-2-2-2-2-2-x-x-3-2-x-0|     the song --> |-2-|
A|-2-2-2-2-2-x-x-1-2-x-0|       (3:07)     |-2-|
D|-2-2-2-2-2-x-x---2-x-0|                  |-2-|

[Verse 2]
(1:08)
(Optional Bass Part)
E|----------------------------------------------------------------------------------------|
B|----------------------------------------------------------------------------------------|
G|----------------------------------------------------------------------------------------|
D|----------------------------------------------------------------------------------------|
A|----------------------------------------------------------------------------------2-----|x2
D|-2-2-2-2-2-2-2-2-2-2-3-2-2-2-2-2-2-2-2-2-2-3-0-0-0-0-0-0-0-0-0-0-0-2-2-2-2-2-2-2--2-2-0-|

E|--------------------|
B|--------------------|
G|--------------------|
D|--------------------|
A|-2-2-2-2-2-2-2-2-2--|
D|-2-2-2-2-2-2-2-2-2--|

[Chorus] x2 
(1:33)
E|-----------------------------------------------------------------|
B|-----------------------------------------------------------------|
G|-----------------------------------------------------------------|
D|-2-2-2-2-2-2-2-2-5-5-5-5-5-5-5-5-0-0-0-0-0-0-0-0-7-7-7-7-7-7-7-7-|
A|-2-2-2-2-2-2-2-2-5-5-5-5-5-5-5-5-0-0-0-0-0-0-0-0-7-7-7-7-7-7-7-7-|x3
D|-2-2-2-2-2-2-2-2-5-5-5-5-5-5-5-5-0-0-0-0-0-0-0-0-7-7-7-7-7-7-7-7-|

E|-----------------------------------------------------------------|
B|-----------------------------------------------------------------|
G|-----------------------------------------------------------------|
D|-2-2-2-2-2-2-2-2-5-5-5-5-5-5-5-5-0-0-0-0-0-0-0-0-0-0-0-0-0-0-0-0-|
A|-2-2-2-2-2-2-2-2-5-5-5-5-5-5-5-5-0-0-0-0-0-0-0-0-0-0-0-0-0-0-0-0-|
D|-2-2-2-2-2-2-2-2-5-5-5-5-5-5-5-5-0-0-0-0-0-0-0-0-0-0-0-0-0-0-0-0-|

E|----------------------|                  |---|
B|----------------------|    this is the   |---|
G|-----------------3----|   FINAL note of  |---|
D|-2-2-2-2-2-x-x-3-2-x-0|     the song --> |-2-|
A|-2-2-2-2-2-x-x-1-2-x-0|       (3:07)     |-2-|
D|-2-2-2-2-2-x-x---2-x-0|                  |-2-|

[Bridge] 
(1:55)
E|-------------------------------|-----------------------------------------------------------------|
B|----------------------------2~-|---------------2~------------------------------------------------|
G|----------------------------2~-|---------------2~------------------------------------------------|
D|----------------------------2~-|-0-1-2-0-4-3-0-6-5-0-1-2-0-2-2~--0-1-2-0-4-3-0-6-5-0-1-2-0-4-3-2-|
A|-------------------------------|-0-1-2-0-4-3-0-6-5-0-1-2-0-2-----0-1-2-0-4-3-0-6-5-0-1-2-0-4-3-2-|x2
D|-0-1-2-0-4-3-0-6-5-0-1-2-0-2---|-0-1-2-0-4-3-0-6-5-0-1-2-0-2-----0-1-2-0-4-3-0-6-5-0-1-2-0-4-3-2-|

E|-----------------------|
B|-----------------------|
G|-----------------------|
D|-0-7-0-1-2-0-4-3-2-1-0-|
A|-0-7-0-1-2-0-4-3-2-1-0-|
D|-0-7-0-1-2-0-4-3-2-1-0-|

(2:26)
[Guitar 1]
E|-----------------------------------------------------------------------------------|
B|-----------------------------------------------------------------------------------| 
G|--------------------------------------------------------3--------------------------|
D|-2-x-x-x-x-x-x-x-x-x32-x-x-x-x-x-x-x-x-x32-x-x-x-x-x-x-x-x-x32-x-x-x-x-x-x-3-2-x-0-|
A|-2-x-x-x-x-x-x-x-x-x32-x-x-x-x-x-x-x-x-x32-x-x-x-x-x-x-x-x-x32-x-x-x-x-x-x-1-2-x-0-|x2
D|-2-x-x-x-x-x-x-x-x-x32-x-x-x-x-x-x-x-x-x32-x-x-x-x-x-x-x-x-x32-x-x-x-x-x-x---2-x-0-|

[Guitar 2]
 - (Optional bass part)- 2nd time only
E|--------------------------------------------------------------------|
B|--------------------------------------------------------------------|
G|--------------------------------------------------------------------|
D|--------------------------------------------------------------------|
A|--------------------------------------------------------------------|
D|-2-2-2-2-2-2-2-2-2-2-3-2-2-2-2-2-2-2-2-2-2-3-2-2-2-2-2-2-2-2-2-2-3-2|

[Chorus]
(2:45)
E|-----------------------------------------------------------------|
B|-----------------------------------------------------------------|
G|-----------------------------------------------------------------|
D|-2-2-2-2-2-2-2-2-5-5-5-5-5-5-5-5-0-0-0-0-0-0-0-0-7-7-7-7-7-7-7-7-|
A|-2-2-2-2-2-2-2-2-5-5-5-5-5-5-5-5-0-0-0-0-0-0-0-0-7-7-7-7-7-7-7-7-|x3
D|-2-2-2-2-2-2-2-2-5-5-5-5-5-5-5-5-0-0-0-0-0-0-0-0-7-7-7-7-7-7-7-7-|

E|-----------------------------------------------------------------|
B|-----------------------------------------------------------------|
G|-----------------------------------------------------------------|
D|-2-2-2-2-2-2-2-2-5-5-5-5-5-5-5-5-0-0-0-0-0-0-0-0-0-0-0-0-0-0-0-0-|
A|-2-2-2-2-2-2-2-2-5-5-5-5-5-5-5-5-0-0-0-0-0-0-0-0-0-0-0-0-0-0-0-0-|
D|-2-2-2-2-2-2-2-2-5-5-5-5-5-5-5-5-0-0-0-0-0-0-0-0-0-0-0-0-0-0-0-0-|

E|----------------------|                  |---|
B|----------------------|    this is the   |---|
G|-----------------3----|   FINAL note of  |---|
D|-2-2-2-2-2-x-x-3-2-x-0|     the song --> |-2-|
A|-2-2-2-2-2-x-x-1-2-x-0|       (3:07)     |-2-|
D|-2-2-2-2-2-x-x---2-x-0|                  |-2-|


************************************

| x  Dead note
| ~  Vibrato

************************************

            
            
Suggest correction
Creating personal tab
Creating personal tab
You can edit any tab online and save it as your Personal.

You can edit, replace or remove any tab part or add personal notes – all changes will be seen only by you.

Personal tabs can be accessed anytime from any device, even offline.
Learn more »
comments
print report bad tab
6 comments total. Showing first comments.
+1 reply
JL Sevenfold 697 May 24, 2007 01:10 PM

the high note in the bridge should be a single note, not a bar chord. Otherwise good job.

0 reply
musicmster 10 May 28, 2007 05:34 PM

Thats tight that u converted the bass riff (verse) into guitar, thanx

0 reply
devin_g94 70 Jun 25, 2007 06:43 PM

dude converting that bass into guitar is not hard. accually there is nothing to do. and this tab is not intermediate. good job tho

guest
You may want to rate the tab now too:
select rating
Wanna post a correction for this tab? Suggest correction