Oops, an error
Loading. Please wait.

Guilty All The Same intro tab

version 1
version 1
344 views 1 this week
no commentswrite comment
1 2 3 4 5
2 more votes to show rating
add to favorites
×
Save as Personal and add changes to this tab that will be seen only by you. Learn more ›
×
You can save this tab as Personal to edit and correct it or add notes. All changes will be seen only by you. Learn more »
launch autoscroll
font size
0
reset
how to read this tab
guitar tuner
backing track
0:00
0:00
edit
Autoscroll
slow
fast
+/-
esc
set tempo
stop
-------------------------------------------------------------------------------
                             guilty all the same - linkin park
-------------------------------------------------------------------------------
Tabbed by: Allan Simonson
E-mail:

Tuning:drop d

e|--------------------------------|                      This is a song I heard and I just tabbed it out.
B|--------------------------------|                      If there is anything wrong or something is missing
G|--------------------------------|                      you can fix it.
D|--0--5--7--0--5--8--7--7--3--3--|
A|--0--5--7--0--5--8--7--7--3--3--|
D|--0--5--7--0--5--8--7--7--3--3--|

e|----------------------|
B|----------------------|
G|----------------------|
D|--0--5--8--10--10--7--|
A|--0--5--8--10--10--7--|
D|--0--5--8--10--10--7--|

e|------------------------------------------------------------|
B|------------------------------------------------------------|
G|------------------------------------------------------------|
D|------------------------------------------------------------|
A|--5-7-8-7-5-5-7-4-4-4-5-6-7-5-7-8-7-5-5-7-8-8-8-8-8-7-7-7-7-|
D|------------------------------------------------------------|




************************************

| /   slide up
| \   slide down
| h   hammer-on
| p   pull-off
| ~   vibrato
| +   harmonic
| x   Mute note
| b   Bend
| pb  Pre-bend
| br  Bend release
| pbr Pre-bend release
| brb Bend release bend

************************************

            
            
Suggest correction
Creating personal tab
Creating personal tab
You can edit any tab online and save it as your Personal.

You can edit, replace or remove any tab part or add personal notes – all changes will be seen only by you.

Personal tabs can be accessed anytime from any device, even offline.
Learn more »
Give kudos to tab author, rate the tab!
1 2 3 4 5
comments
print report bad tab
guest
You may want to rate the tab now too:
select rating
Wanna post a correction for this tab? Suggest correction