Oops, an error
Loading. Please wait.

Hit The Floor bass

version 3
version 3

Whole song

1,897 views 1 this week
no commentswrite comment
1 2 3 4 5
3 more votes to show rating
add to favorites
×
Save as Personal and add changes to this tab that will be seen only by you. Learn more ›
×
You can save this tab as Personal to edit and correct it or add notes. All changes will be seen only by you. Learn more »
launch autoscroll
font size
0
reset
guitar tuner
edit
Autoscroll
slow
fast
+/-
esc
set tempo
stop
Author
Difficulty
This is one of the easiest songs to learn by them. It is very repetetive and i guess 
have fun learning it.

The intro starts out with the guitar. Let it play the same thing twice then the bass 
in with this...

Intro
Gb|------------------|
Db|------------------| x2
Ab|------------------|
Db|--0-4-0-1--1-1-0--|

Then you play the chorus...

Chorus
Gb|---------------------------|
Db|---------------------------| x3
Ab|---------------------------|
Db|--0-4-0-1--1-1-0---0-8887--|

Gb|------------------|
Db|------------------|
Ab|------------------|
Db|--0-4-0-1--1-1-0--|

Then the verse. The guitar will play the same thing four times in a row, then the bass 
in...

Verse
Gb|------------------|
Db|------------------| x4
Ab|------------------|
Db|--0-4-0-1--1-1-0--|

Then comes the chorus again, but it is a little different...

Chorus
Gb|--------------------------|
Db|--------------------------| x4
Ab|--------------------------|
Db|--0-4-0-1--1-1-0--0-8887--|

Then the verse plays again, the same way before. The guitar plays the same thing four 
then the bass comes in...

Verse
Gb|------------------|
Db|------------------| x4
Ab|------------------|
Db|--0-4-0-1--1-1-0--|

Then the chorus...

Chorus
Gb|--------------------------|
Db|--------------------------| x4
Ab|--------------------------|
Db|--0-4-0-1--1-1-0--0-8887--|

Then there is a new part which comes right after the chorus...

Bridge
Gb|--------------------------|
Db|--------------------------| x2
Ab|--------------------------|
Db|--0--0--0-33--0--0--0-11--|

Then after that, it is like a short verse. But there is no bass. Then after that the 
comes in...

Chorus
Gb|--------------------------|
Db|--------------------------| x4
Ab|--------------------------|
Db|--0-4-0-1--1-1-0--0-8887--|

And then the thing after the chorus comes again...

Bridge
Gb|--------------------------|
Db|--------------------------| x2
Ab|--------------------------|
Db|--0--0--0-33--0--0--0-11--|

Then finally, the outro...

Outro
Gb|------------------------------------------|
Db|------------------------------------------|
Ab|------------------------------------------|
Db|--0-4-0-1--1-1-0--0-8887--0-4-0-1--1-1-0--|

Hope you had fun learning this song and please rate this and tell me what u think of it. 
playing!

            
            
Suggest correction
Creating personal tab
Creating personal tab
You can edit any tab online and save it as your Personal.

You can edit, replace or remove any tab part or add personal notes – all changes will be seen only by you.

Personal tabs can be accessed anytime from any device, even offline.
Learn more »
Give kudos to tab author, rate the tab!
1 2 3 4 5
comments
print report bad tab
guest
You may want to rate the tab now too:
select rating
Wanna post a correction for this tab? Suggest correction