Oops, an error
Loading. Please wait.
We have an official In Pieces tab made by UG professional guitarists. Check out the tab »
×
6,900 views 1 this week
4 commentsread comments
1 2 3 4 5
x 4
add to favorites
×
Save as Personal and add changes to this tab that will be seen only by you. Learn more ›
×
You can save this tab as Personal to edit and correct it or add notes. All changes will be seen only by you. Learn more »
launch autoscroll
font size
0
reset
how to read this tab
guitar tuner
edit
Autoscroll
slow
fast
+/-
esc
set tempo
stop
Author
Linkin Park-In Pieces

All guitars - Db Ab Db Gb Bb Eb


(No guitar until the 2nd verse)

Pre-verse - Guitar 1 (All parts with guitar 1 are upstrokes)
|-5-5-5-7-5-5-5-7-5-5-5-5-5-5-4-4-|
|-7-7-7-7-7-7-7-7-7-7-7-7-7-7-6-6-|
|---------------------------------|
|---------------------------------|
|---------------------------------|
|---------------------------------|

Verse - Guitar 1
|-5-5-5-7-5-5-5-7-5-5-5-5-5-5-4-4-|
|-7-7-7-7-7-7-7-7-7-7-7-7-7-7-6-6-|
|---------------------------------|
|---------------------------------|
|---------------------------------|
|---------------------------------|

|-5-5-5-7-5-5-5-7-5-5-5-5-5-5-4-4-|
|-7-7-7-7-7-7-7-7-7-7-7-7-7-7-6-6-|
|---------------------------------|
|---------------------------------|
|---------------------------------|
|---------------------------------|

Pre-chorus - Guitar 1
|-5-7-5-5-5-7-5-5-5-7-5-5-5-5-4-4-|
|-7-7-7-7-7-7-7-7-7-7-7-7-7-7-6-6-|
|---------------------------------|
|---------------------------------|
|---------------------------------|
|---------------------------------|

Chorus - Guitar 1
|-9--10-12-12-9--10-12-12-9--9--9--9--7-7-7-7-|
|-10-10-10-10-10-10-10-10-10-10-10-10-9-9-9-9-|
|---------------------------------------------|
|---------------------------------------------|
|---------------------------------------------|
|---------------------------------------------|

|-9--10-12-12-9--10-12-12-9--9--9--9--7-7-7-7-|
|-10-10-10-10-10-10-10-10-10-10-10-10-9-9-9-9-|
|---------------------------------------------|
|---------------------------------------------|
|---------------------------------------------|
|---------------------------------------------|

Guitar Solo - Guitar 2
|----------------------------------------------------------------------------------|
|----------------------------------------------------------------------------------|
|-13h14p13----13h14p13----13h14p13----13h14p13----13h14p13----13h14p13----13-------|
|----------16----------16----------16----------16----------16----------16----14----|
|-------------------------------------------------------------------------------16-|
|----------------------------------------------------------------------------------|

|----------------------------------------------------------------------------------|
|----------------------------------------------------------------------------------|
|-13h14p13----13h14p13----13h14p13----13h14p13----13h14p13----13h14p13----13-------|
|----------16----------16----------16----------16----------16----------16----14----|
|-------------------------------------------------------------------------------16-|
|----------------------------------------------------------------------------------|

|----------------------------------------------------------------------------------|
|----------------------------------------------------------------------------------|
|-13h14p13----13h14p13----13h14p13----13h14p13----13h14p13----13h14p13----13-------|
|----------16----------16----------16----------16----------16----------16----14----|
|-------------------------------------------------------------------------------16-|
|----------------------------------------------------------------------------------|

|-------------------------------------------------|
|-------------------------------------------------|
|-14-14-14-14-14-14-14-14-13-13-13-13-13-13-13-13-|
|-------------------------------------------------|
|-------------------------------------------------|
|-------------------------------------------------|

|----------------------------------------------------------------------------|
|----------------------------------------------------------14-14h15p14----14-|
|-13h14p13----13h14p13----13h14p13----13h14p13----13-14-16-------------16----|
|----------16----------16----------16----------16----------------------------|
|----------------------------------------------------------------------------|
|----------------------------------------------------------------------------|
|Guitar 2
|
|----------------------------------------------------------------------------|
|----------------------------------------------------------------------------|
|-11----11----11----11----11----11----11----11----11-11-11-11-11----11-11-11-|
|-x-----x-----x-----x-----x-----x-----x-----x-----x--x--x--x--x-----x--x--x--|
|-9-----9-----9-----9-----9-----9-----9-----9-----9--9--9--9--9-----9--9--9--|
|----------------------------------------------------------------------------|
|Guitar 1

|----------------------------------------------------------------------------|
|----------------------------------------------------------14-14h15p14----14-|
|-13h14p13----13h14p13----13h14p13----13h14p13----13-14-16-------------16----|
|----------16----------16----------16----------16----------------------------|
|----------------------------------------------------------------------------|
|----------------------------------------------------------------------------|
|Guitar 2
|
|----------------------------------------------------------------------------|
|----------------------------------------------------------------------------|
|-7-----7-----7-----7-----7-----7-----7-----7-----7--7--7--7--7-----7--7--7--|
|-x-----x-----x-----x-----x-----x-----x-----x-----x--x--x--x--x-----x--x--x--|
|-5-----5-----5-----5-----5-----5-----5-----5-----5--5--5--5--5-----5--5--5--|
|----------------------------------------------------------------------------|
|Guitar 1

|-------------------------------------------------------------|
|-------------------------------------------------------------|
|----------16-16h18p16----16-18----------18-18h19p18----18-19-|
|-16-18-19-------------19-------18-19-21-------------21-------|
|-------------------------------------------------------------|
|-------------------------------------------------------------|
|Guitar 2
|
|-------------------------------------------------------------|
|-------------------------------------------------------------|
|-4--4--4--4--4-----4-----4--4--4--4--4--4--4-----4-----4--4--|
|-x--x--x--x--x-----x-----x--x--x--x--x--x--x-----x-----x--x--|
|-2--2--2--2--2-----2-----2--2--2--2--2--2--2-----2-----2--2--|
|-------------------------------------------------------------|
|Guitar 1

|------------------------------------------------------------------------|
|------------------------------------------------------------------------|
|-18h19p18----18h19p18----18h19p18----18h19p18----18-18-18-18-18-18-18\--|
|----------21----------21----------21----------21------------------------|
|------------------------------------------------------------------------|
|------------------------------------------------------------------------|
|Guitar 2
|
|------------------------------------------------------------------------|
|------------------------------------------------------------------------|
|-6-----6-----6-----6-----6-----6-----6-----6-----6--6--6--6--6--6--6--6-|
|-x-----x-----x-----x-----x-----x-----x-----x-----x--x--x--x--x--x--x--x-|
|-4-----4-----4-----4-----4-----4-----4-----4-----4--4--4--4--4--4--4--4-|
|------------------------------------------------------------------------|
|Guitar 1

Final chorus
|-------------------------------------------------------------------------------------------------|
|-------------------------------------------------------------------------------------------------|
|-11-11-11-11-11-11-11-11-11-11-11-11-11-11-11-11-11-11-11-11-11-11-11-11-11-11-11-11-11-11-11-11-|
|-x--x--x--x--x--x--x--x--x--x--x--x--x--x--x--x--x--x--x--x--x--x--x--x--x--x--x--x--x--x--x--x--|
|-9--9--9--9--9--9--9--9--9--9--9--9--9--9--9--9--9--9--9--9--9--9--9--9--9--9--9--9--9--9--9--9--|
|-------------------------------------------------------------------------------------------------|
|Guitar 1
|
|-------------------------------------------------------------------------------------------------|
|-------------------------------------------------------------------------------------------------|
|-16-16-16-16-16-16-16-16-16-16-16-16-16-16-16-16-14-14-14-14-14-14-14-14-14-14-14-14-14-14-14-14-|
|-x--x--x--x--x--x--x--x--x--x--x--x--x--x--x--x--x--x--x--x--x--x--x--x--x--x--x--x--x--x--x--x--|
|-14-14-14-14-14-14-14-14-14-14-14-14-14-14-14-14-12-12-12-12-12-12-12-12-12-12-12-12-12-12-12-12-|
|-------------------------------------------------------------------------------------------------|
|Guitar 2
|
|-------------------------------------------------------------------------------------------------|
|-------------------------------------------------------------------------------------------------|
|-------------------------------------------------------------------------------------------------|
|-9--9--9--9--9--9--9--9--9--9--9--9--9--9--9--9--0--0--0--0--0--0--0--0--0--0--0--0--0--0--0--0--|
|-9--9--9--9--9--9--9--9--9--9--9--9--9--9--9--9--0--0--0--0--0--0--0--0--0--0--0--0--0--0--0--0--|
|-9--9--9--9--9--9--9--9--9--9--9--9--9--9--9--9--0--0--0--0--0--0--0--0--0--0--0--0--0--0--0--0--|
|Guitar 1

|-------------------------------------------------------------------------------------------------|
|-------------------------------------------------------------------------------------------------|
|-9--9--9--9--9--9--9--9--9--9--9--9--9--9--9--9--9--9--9--9--9--9--9--9--9--9--9--9--9--9--9--9--|
|-x--x--x--x--x--x--x--x--x--x--x--x--x--x--x--x--x--x--x--x--x--x--x--x--x--x--x--x--x--x--x--x--|
|-7--7--7--7--7--7--7--7--7--7--7--7--7--7--7--7--7--7--7--7--7--7--7--7--7--7--7--7--7--7--7--7--|
|-------------------------------------------------------------------------------------------------|
|Guitar 1
|
|-------------------------------------------------------------------------------------------------|
|-------------------------------------------------------------------------------------------------|
|-14-14-14-14-14-14-14-14-14-14-14-14-14-14-14-14-16-16-16-16-16-16-16-16-16-16-16-16-16-16-16-16-|
|-x--x--x--x--x--x--x--x--x--x--x--x--x--x--x--x--x--x--x--x--x--x--x--x--x--x--x--x--x--x--x--x--|
|-12-12-12-12-12-12-12-12-12-12-12-12-12-12-12-12-14-14-14-14-14-14-14-14-14-14-14-14-14-14-14-14-|
|-------------------------------------------------------------------------------------------------|
|Guitar 2
|
|-------------------------------------------------------------------------------------------------|
|-------------------------------------------------------------------------------------------------|
|-------------------------------------------------------------------------------------------------|
|-7--7--7--7--7--7--7--7--7--7--7--7--7--7--7--7--2--2--2--2--2--2--2--2--2--2--2--2--2--2--2--2--|
|-7--7--7--7--7--7--7--7--7--7--7--7--7--7--7--7--2--2--2--2--2--2--2--2--2--2--2--2--2--2--2--2--|
|-7--7--7--7--7--7--7--7--7--7--7--7--7--7--7--7--2--2--2--2--2--2--2--2--2--2--2--2--2--2--2--2--|
|Guitar 1

|-------------------------------------------------------------------------------------------------|
|-------------------------------------------------------------------------------------------------|
|-11-11-11-11-11-11-11-11-11-11-11-11-11-11-11-11-11-11-11-11-11-11-11-11-11-11-11-11-11-11-11-11-|
|-x--x--x--x--x--x--x--x--x--x--x--x--x--x--x--x--x--x--x--x--x--x--x--x--x--x--x--x--x--x--x--x--|
|-9--9--9--9--9--9--9--9--9--9--9--9--9--9--9--9--9--9--9--9--9--9--9--9--9--9--9--9--9--9--9--9--|
|-------------------------------------------------------------------------------------------------|
|Guitar 1
|
|-------------------------------------------------------------------------------------------------|
|-------------------------------------------------------------------------------------------------|
|-16-16-16-16-16-16-16-16-16-16-16-16-16-16-16-16-14-14-14-14-14-14-14-14-14-14-14-14-14-14-14-14-|
|-x--x--x--x--x--x--x--x--x--x--x--x--x--x--x--x--x--x--x--x--x--x--x--x--x--x--x--x--x--x--x--x--|
|-14-14-14-14-14-14-14-14-14-14-14-14-14-14-14-14-12-12-12-12-12-12-12-12-12-12-12-12-12-12-12-12-|
|-------------------------------------------------------------------------------------------------|
|Guitar 2
|
|-------------------------------------------------------------------------------------------------|
|-------------------------------------------------------------------------------------------------|
|-------------------------------------------------------------------------------------------------|
|-9--9--9--9--9--9--9--9--9--9--9--9--9--9--9--9--0--0--0--0--0--0--0--0--0--0--0--0--0--0--0--0--|
|-9--9--9--9--9--9--9--9--9--9--9--9--9--9--9--9--0--0--0--0--0--0--0--0--0--0--0--0--0--0--0--0--|
|-9--9--9--9--9--9--9--9--9--9--9--9--9--9--9--9--0--0--0--0--0--0--0--0--0--0--0--0--0--0--0--0--|
|Guitar 1

|-------------------------------------------------------------------------------------------------|
|-------------------------------------------------------------------------------------------------|
|-9--9--9--9--9--9--9--9--9--9--9--9--9--9--9--9--16-16-16-16-16-16-16-16-16-16-16-16-16-16-16-16-|
|-x--x--x--x--x--x--x--x--x--x--x--x--x--x--x--x--x--x--x--x--x--x--x--x--x--x--x--x--x--x--x--x--|
|-7--7--7--7--7--7--7--7--7--7--7--7--7--7--7--7--14-14-14-14-14-14-14-14-14-14-14-14-14-14-14-14-|
|-------------------------------------------------------------------------------------------------|
|Guitar 1
|
|-------------------------------------------------------------------------------------------------|
|-------------------------------------------------------------------------------------------------|
|-14-14-14-14-14-14-14-14-14-14-14-14-14-14-14-14-21-21-21-21-21-21-21-21-21-21-21-21-21-21-21-21-|
|-x--x--x--x--x--x--x--x--x--x--x--x--x--x--x--x--x--x--x--x--x--x--x--x--x--x--x--x--x--x--x--x--|
|-12-12-12-12-12-12-12-12-12-12-12-12-12-12-12-12-19-19-19-19-19-19-19-19-19-19-19-19-19-19-19-19-|
|-------------------------------------------------------------------------------------------------|
|Guitar 2
|
|-------------------------------------------------------------------------------------------------|
|-------------------------------------------------------------------------------------------------|
|-------------------------------------------------------------------------------------------------|
|-7--7--7--7--7--7--7--7--7--7--7--7--7--7--7--7--2--2--2--2--2--2--2--2--2--2--2--2--2--2--2--2--|
|-7--7--7--7--7--7--7--7--7--7--7--7--7--7--7--7--2--2--2--2--2--2--2--2--2--2--2--2--2--2--2--2--|
|-7--7--7--7--7--7--7--7--7--7--7--7--7--7--7--7--2--2--2--2--2--2--2--2--2--2--2--2--2--2--2--2--|
|Guitar 1

Outro - Guitar 1
|-9--10-12-12-9--10-12-12-9--9--9--9--7-7-7-7-|
|-10-10-10-10-10-10-10-10-10-10-10-10-9-9-9-9-|
|---------------------------------------------|
|---------------------------------------------|
|---------------------------------------------|
|---------------------------------------------|


Please rate and comment!

            
            
Suggest correction
Creating personal tab
Creating personal tab
You can edit any tab online and save it as your Personal.

You can edit, replace or remove any tab part or add personal notes – all changes will be seen only by you.

Personal tabs can be accessed anytime from any device, even offline.
Learn more »
comments
print report bad tab
4 comments total. Showing first comments.
0 reply
J Mud 82 Jun 25, 2008 09:08 AM

5 guitars? okay...

0 reply
lillis 61 Jun 25, 2008 10:26 AM

Im gonna fix that soon

0 reply
titi riendeau 58 Jun 25, 2008 10:44 AM

it's right, but maybe the solo is difficult to play on 2 cords!!!

guest
You may want to rate the tab now too:
select rating
Wanna post a correction for this tab? Suggest correction