Oops, an error
Loading. Please wait.
We have an official New Divide tab made by UG professional guitarists. Check out the tab »
×
28,890 views 42 this week
5 commentsread comments
1 2 3 4 5
x 17
add to favorites
×
Save as Personal and add changes to this tab that will be seen only by you. Learn more ›
×
You can save this tab as Personal to edit and correct it or add notes. All changes will be seen only by you. Learn more »
launch autoscroll
font size
0
reset
guitar tuner
backing track
0:00
0:00
edit
Autoscroll
slow
fast
+/-
esc
set tempo
stop
Author
Difficulty
Artist: Linkin Park
Song: New Divide
Tuning: Standard

This is my 1st time tabbing. I've mixed and matched a few bass tabs from others 
and referenced from guitar tabs. 
Any corrections or suggestions, please leave in the comments section.



Start 0:19 (11 >> eleven; 13 >> thirteen; 15 >> fifteen)
G|-------------------------------------------------------------|
D|-------------------------------------------------------------|
A|-888888881111111111111111666666661313131313131515------------|x2
E|-------------------------------------------------------------|


 (Verse)
G|---------------------------------------|
D|---------------------------------------|
A|---8-------11------6-------1-----------|x3
E|---------------------------------------|

 (Pre Chorus) ( 1 >> one)
G|-----------------------------------|
D|-----------------------------------|
A|-4444444444444444111111111---------|                   
E|-----------------------------------|

 (Chorus) (11 >> eleven; 13 >> thirteen; 15 >> fifteen)
G|---------------------------------------------|--------------------------------------------|
D|---------------------------------------------|--------------------------------------------|
A|-8888888888888888666666661313131313131313----|--8888888811111111111111116666666666666666--|
E|---------------------------------------------|--------------------------------------------|

G|--------------------------------------------------|
D|--------------------------------------------------|
A|-888888881111111111111111666666661313131313131515-|
E|--------------------------------------------------|

G|-------------------|
D|-11 (16x) 13 (16x)-|
A|-------------------|
E|-------------------|

G|--------------------------------------------------|
D|--------------------------------------------------|
A|-888888881111111111111111666666661313131313131515-|
E|--------------------------------------------------|

 (Verse)
G|--------------------------------------------------|
D|--------------------------------------------------|
A|-888888881111111111111111666666661313131313131515-|
E|--------------------------------------------------| 3x


 (Pre Chorus) ( 1 >> one)               (11 >> eleven)
G|-----------------------------|    |------------------------|
D|-----------------------------| or |--11 (16x) 8 (9x)-------| 
A|-4444444444444444111111111---|    |------------------------|               
E|-----------------------------|    |------------------------|


 (Chorus) (11 >> eleven; 13 >> thirteen; 15 >> fifteen)
G|---------------------------------------------|--------------------------------------------|
D|---------------------------------------------|--------------------------------------------|
A|-8888888888888888666666661313131313131313----|--88888888111111111111111166666666666666668-|
E|---------------------------------------------|--------------------------------------------|

 (Guitar Solo) ( 1 >> one)
G|-----------------------------------------------|
D|-----------------------------------------------|
A|-----------------------------------------------|
E|111--1--1-1--1---111--1--1-1--1---111--1--111--|


 (Bridge) (11 >> eleven; 13 >> thirteen; 15 >> fifteen)
G|---------------------------------------------------|
D|---------------------------------------------------|
A|-888888881111111111111111666666661313131313131515--|
E|---------------------------------------------------|

G|---------------------------------------------------|
D|---------------------------------------------------|
A|-888888881111111111111111666666661313131313131515--|
E|---------------------------------------------------|

G|---------------------------|
D|-11 (16x) 8 (12x) 11 (4x)--|
A|---------------------------|
E|---------------------------|



 (Chorus) (11 >> eleven; 13 >> thirteen; 15 >> fifteen)
G|---------------------------------------------|--------------------------------------------|
D|---------------------------------------------|--------------------------------------------|
A|-8888888888888888666666661313131313131313----|--8888888811111111111111116666666666666666--|
E|---------------------------------------------|--------------------------------------------|

G|--------------------------------------------------|
D|--------------------------------------------------|
A|-888888881111111111111111666666661313131313131515-|
E|--------------------------------------------------|

G|-------------------|
D|-11 (16x) 13 (16x)-|
A|-------------------|
E|-------------------|

G|--------------------------------------------------|
D|--------------------------------------------------|
A|-888888881111111111111111666666661313131313131515-|
E|--------------------------------------------------|

G|---------------------------------------------------|
D|---------------------------------------------------|
A|-8888888811111111111111116666666613131313131315158-|
E|---------------------------------------------------|

OUtro

G|-----------------------------------------------|
D|--6--------10---------13---------10------------|
A|----8--------8----------13---------8~~---------|
E|-----------------------------------------------|

G|-----------------------------------------------|
D|--6--------10---------13-----------------------|
A|----8--------8----------13---------------------|
E|-----------------------------------------------|

I'm not sure about the outro though.

            
            
Suggest correction
Creating personal tab
Creating personal tab
You can edit any tab online and save it as your Personal.

You can edit, replace or remove any tab part or add personal notes – all changes will be seen only by you.

Personal tabs can be accessed anytime from any device, even offline.
Learn more »
comments
print report bad tab
5 comments total. Showing first comments.
+2 reply
Snap Locket 15 Aug 04, 2009 02:25 PM

First of all, great tab! the closest to matching the song then any other. a few tips though. first, through the whole song, i find it easier to play 8 and 10 on the 3rd string, rather then 13 and 15 on the 2nd string. i also find it easier to play 6 on the top string, rather then 1 on the 2nd.

and 2ndly, i think i have that outro, it sounds more like...

G|-----------------------------------|
D|-----------------------------------|
A|--8--8811--11--6--6----------------|
E|---------------------6--6----------|

G|-----------------------------------|
D|-----------------------------------|
A|--8--8811--11--6--6----------------|
E|-----------------------------------|
\11=eleven/

listen for the timing. i could be wrong though, i'll let you be the judge.

thanks again for a great tab :)

0 reply
jordanbeth 51 Aug 30, 2009 08:26 AM

great tab and i think the correction above does sound better but a great tab thanks :)

0 reply
Der Bassist 50 Sep 30, 2009 06:48 AM

Very accurate, but I tried just to play it to the song and I would say you have to go one half-tone higher with the whole tab.
Otherwise great tab! Its all understandable and clean. Maybe you could leave out some lines if they are repeated and just write e.g. vers 2.
Snap Lockets Outro is also mostly right.

guest
You may want to rate the tab now too:
select rating
Wanna post a correction for this tab? Suggest correction