Oops, an error
Loading. Please wait.
328,866 views 150 this week
5 commentsread comments
1 2 3 4 5
x 10
add to favorites
×
Save as Personal and add changes to this tab that will be seen only by you. Learn more ›
×
You can save this tab as Personal to edit and correct it or add notes. All changes will be seen only by you. Learn more »
launch autoscroll
font size
0
reset
how to read this tab
guitar tuner
backing track
0:00
0:00
edit
Autoscroll
slow
fast
+/-
esc
set tempo
stop
[Intro]

   (A)
E|-----------------------------------------------------------------|
B|-----------------------------------------------------------------|
G|-----------------------------------------------------------------|
D|-------------10----------13-----8-----10-------------------------| x4
A|--11---8~-----------8~----------------------8--------------------|
D|-----------------------------------------------------------------|
This is (A)


 On the 3rd time a second guitar comes in and plays this (x2) (B)
E|-----------------------------------------------------------------|
B|-----------------------------------------------------------------|
G|--5-------\-8--------\-15--------\-10----------------------------|
D|--3-------\-6--------\-13--------\-8-----------------------------|
A|--3--(x8)-\-6--(x8)--\-13--(x8)--\-8---(x8)----------------------|
D|--3-------\-6--------\-13--------\-8-----------------------------|
This is (B)


[Verse]

 No guitar in verse except for this right before the chorus (When he says "Get what i 
 Start playing:
E|-----------------------------------------------------------------|
B|-----------------------------------------------------------------|
G|-----10--(x12?)-Palm mute and slowly release then----------------|
D|-----------------play with no PM (like your building it up)------|
A|-----------------------------------------------------------------|
D|-----------------------------------------------------------------|


[Chorus]

Play (B)

BUT on "let it be enough to reach the truth..."
(which is after 2nd time)

Play

E|-----------------------------------------------------------------|
B|-----------------------------------------------------------------|
G|--13---------\-15------------------------------------------------|
D|--11---------\-13------------------------------------------------|
A|--11--(x16)--\-13--(x16)-----------------------------------------|
D|--11---------\-13------------------------------------------------|

Then Intro x1 goin into verse 2


[Verse]

same as Verse 1


[Chorus]

After "across this new divide" theres that weird robotic solo (reminds me of buckethead) 
i can't tab it. But wat im hearing are lotsa efx with lotsa mutes and sum pull-offs


[Bridge]

Same as chorus

and for the accapella with just the guitar playing play (B) except the D string-this is 
same for last chorus


[Outro]

"across this new divvvvviiiiiiiiiiiiiiiiiiideeeeeeee"

both guitars play intro (A) and (B)

then just (A) x2 for end of song.

            
            
Suggest correction
Creating personal tab
Creating personal tab
You can edit any tab online and save it as your Personal.

You can edit, replace or remove any tab part or add personal notes – all changes will be seen only by you.

Personal tabs can be accessed anytime from any device, even offline.
Learn more »
comments
print report bad tab
5 comments total. Showing first comments.
0 reply
goneforeverxxx 30 May 22, 2009 02:29 AM

Its played on the 8th fret on the 5th string no Drop D and the "weird robotic thing" looks something like this"
------------------------
------------------------
------------------------
---8-10-10b-8-----------
-8----------------------
------------------------

0 reply
blakhell05 10 Jun 28, 2009 12:49 AM

intro e------------------
B-----0---3---0----
G-0---------2------ about 3 or 4
D---2---2-------2--
A------------------
E------------------

0 reply
blakhell05 10 Jun 28, 2009 12:50 AM

soz, about three or four times*

guest
You may want to rate the tab now too:
select rating
Wanna post a correction for this tab? Suggest correction