Oops, an error
Loading. Please wait.
30,725 views 6 this week
5 commentsread comments
1 2 3 4 5
x 5
add to favorites
×
Save as Personal and add changes to this tab that will be seen only by you. Learn more ›
×
You can save this tab as Personal to edit and correct it or add notes. All changes will be seen only by you. Learn more »
launch autoscroll
font size
0
reset
how to read this tab
guitar tuner
backing track
0:00
0:00
edit
Autoscroll
slow
fast
+/-
esc
set tempo
stop
Author
-------------------------------------------------------------------------------
                             New Divide - Linkin Park
-------------------------------------------------------------------------------
Tabbed by: Guitardude559
Email:thedudewhosentyouthisemail93@yahoo.com
This is a tab of Linkin Park's new song New Divide, a single from the upcoming 
movie. This is my first tab, so cut me some slack. Listen to the song for exact 
timing of the notes.

Tuning: DADGBe

Intro(4x):
GTR I
e|---------------------------------------------------------------------------|
B|---------------------------------------------------------------------------|
G|---------------------------------------------------------------------------|
D|---------------------------------------------------------------------------|
A|------11--8----------15--8-----------18--13---------15--8------------------|
D|---------------------------------------------------------------------------|

GTR II(comes in with band after 2nd repeat, listen to the song for timing)
e|---------------------------------------------------------------------------|
B|---------------------------------------------------------------------------|
G|---------------------------------------------------------------------------|
D|-----3-3-3-3-3-3-3-3-6-6-6-6-6-6-6-6-1-1-1-1-1-1-1-1-8-8-8-8-8-8-8-8-------|
A|-----3-3-3-3-3-3-3-3-6-6-6-6-6-6-6-6-1-1-1-1-1-1-1-1-8-8-8-8-8-8-8-8-------|
D|-----3-3-3-3-3-3-3-3-6-6-6-6-6-6-6-6-1-1-1-1-1-1-1-1-8-8-8-8-8-8-8-8-------|

End on:
GTR I
e|---------------------------------------------------------------------------|
B|---------------------------------------------------------------------------|
G|---------------------------------------------------------------------------|
D|---------------------------------------------------------------------------|
A|-----8~--------------------------------------------------------------------|
D|---------------------------------------------------------------------------|

GTR II
e|---------------------------------------------------------------------------|
B|---------------------------------------------------------------------------|
G|---------------------------------------------------------------------------|
D|-----3~--------------------------------------------------------------------|
A|-----3~--------------------------------------------------------------------|
D|-----3~--------------------------------------------------------------------|

No guitar in verse

Chorus I:
GTR I(2x)
e|-----------------------------------------------------------------------------|
B|-----------------------------------------------------------------------------|
G|-----------------------------------------------------------------------------|
D|-----------------------------------------------------------------------------|
A|-----------------------------------------------------------------------------|
D|-----8-8-8-8-8-8-8-8-11(8x)---------------18(8x)----------13(4x)--11(4x)-----|

GTR II(2x)
e|---------------------------------------------------------------------------|
B|---------------------------------------------------------------------------|
G|---------------------------------------------------------------------------|
D|---------------------------------------------------------------------------|
A|---------------------------------------------------------------------------|
D|-----3-3-3-3-3-3-3-3-3-3-3-3-3-3-3-3-1-1-1-1-1-1-1-1-8-8-8-8-8-8-8-8-------|

Will it be enough to reach the truth that lies...
GTR I
e|---------------------------------------------------------------------------|
B|---------------------------------------------------------------------------|
G|---------------------------------------------------------------------------|
D|---------------------------------------------------------------------------|
A|---------------------------------------------------------------------------|
D|------16(16x)-------------------------13(16x)------------------------------|

GTR II
e|---------------------------------------------------------------------------|
B|---------------------------------------------------------------------------|
G|---------------------------------------------------------------------------|
D|---------------------------------------------------------------------------|
A|---------------------------------------------------------------------------|
D|-----6-6-6-6-6-6-6-6-6-6-6-6-6-6-6-6-8-8-8-8-8-8-8-8-8-8-8-8-8-8-8-8-------|

Across this new divide...
Chorus I outtro(Repeat of band intro):
GTR I
e|---------------------------------------------------------------------------|
B|---------------------------------------------------------------------------|
G|---------------------------------------------------------------------------|
D|---------------------------------------------------------------------------|
A|------11--8----------15--8-----------18--13---------15--8------------------|
D|---------------------------------------------------------------------------|

GTR II
e|---------------------------------------------------------------------------|
B|---------------------------------------------------------------------------|
G|---------------------------------------------------------------------------|
D|-----3-3-3-3-3-3-3-3-6-6-6-6-6-6-6-6-1-1-1-1-1-1-1-1-8-8-8-8-8-8-8-8-------|
A|-----3-3-3-3-3-3-3-3-6-6-6-6-6-6-6-6-1-1-1-1-1-1-1-1-8-8-8-8-8-8-8-8-------|
D|-----3-3-3-3-3-3-3-3-6-6-6-6-6-6-6-6-1-1-1-1-1-1-1-1-8-8-8-8-8-8-8-8-------|

End on:
GTR I
e|---------------------------------------------------------------------------|
B|---------------------------------------------------------------------------|
G|---------------------------------------------------------------------------|
D|---------------------------------------------------------------------------|
A|-----8~--------------------------------------------------------------------|
D|---------------------------------------------------------------------------|

GTR II
e|---------------------------------------------------------------------------|
B|---------------------------------------------------------------------------|
G|---------------------------------------------------------------------------|
D|-----3~--------------------------------------------------------------------|
A|-----3~--------------------------------------------------------------------|
D|-----3~--------------------------------------------------------------------|

No guitar in verse II

Corus II:
GTR I(2x)
e|-----------------------------------------------------------------------------|
B|-----------------------------------------------------------------------------|
G|-----------------------------------------------------------------------------|
D|-----------------------------------------------------------------------------|
A|-----------------------------------------------------------------------------|
D|-----8-8-8-8-8-8-8-8-11(8x)---------------18(8x)----------13(4x)--11(4x)-----|

GTR II(2x)
e|---------------------------------------------------------------------------|
B|---------------------------------------------------------------------------|
G|---------------------------------------------------------------------------|
D|---------------------------------------------------------------------------|
A|---------------------------------------------------------------------------|
D|-----3-3-3-3-3-3-3-3-3-3-3-3-3-3-3-3-1-1-1-1-1-1-1-1-8-8-8-8-8-8-8-8-------|

Will it be enough to reach the truth that lies...
GTR I
e|---------------------------------------------------------------------------|
B|---------------------------------------------------------------------------|
G|---------------------------------------------------------------------------|
D|---------------------------------------------------------------------------|
A|---------------------------------------------------------------------------|
D|------16(16x)-------------------------13(16x)------------------------------|

GTR II
e|---------------------------------------------------------------------------|
B|---------------------------------------------------------------------------|
G|---------------------------------------------------------------------------|
D|---------------------------------------------------------------------------|
A|---------------------------------------------------------------------------|
D|-----6-6-6-6-6-6-6-6-6-6-6-6-6-6-6-6-8-8-8-8-8-8-8-8-8-8-8-8-8-8-8-8-------|

Gutiar solo:

Coming soon

Bridge:
GTR I(2x)
e|-----------------------------------------------------------------------------|
B|-----------------------------------------------------------------------------|
G|-----------------------------------------------------------------------------|
D|-----------------------------------------------------------------------------|
A|-----------------------------------------------------------------------------|
D|-----8-8-8-8-8-8-8-8-11(8x)---------------18(8x)----------13(4x)--11(4x)-----|

GTR II(2x)
e|---------------------------------------------------------------------------|
B|---------------------------------------------------------------------------|
G|---------------------------------------------------------------------------|
D|---------------------------------------------------------------------------|
A|---------------------------------------------------------------------------|
D|-----3-3-3-3-3-3-3-3-3-3-3-3-3-3-3-3-1-1-1-1-1-1-1-1-8-8-8-8-8-8-8-8-------|

Will it be enough to reach the truth that lies...
GTR I
e|---------------------------------------------------------------------------|
B|---------------------------------------------------------------------------|
G|---------------------------------------------------------------------------|
D|---------------------------------------------------------------------------|
A|---------------------------------------------------------------------------|
D|------16(16x)-------------------------13(16x)------------------------------|

GTR II
e|---------------------------------------------------------------------------|
B|---------------------------------------------------------------------------|
G|---------------------------------------------------------------------------|
D|---------------------------------------------------------------------------|
A|---------------------------------------------------------------------------|
D|-----6-6-6-6-6-6-6-6-6-6-6-6-6-6-6-6-8-8-8-8-8-8-8-8-8-8-8-8-8-8-8-8-------|

Bridge II(?):
GTR I(2x)
e|-----------------------------------------------------------------------------|
B|-----------------------------------------------------------------------------|
G|-----------------------------------------------------------------------------|
D|-----------------------------------------------------------------------------|
A|-----------------------------------------------------------------------------|
D|-----8-8-8-8-8-8-8-8-11(8x)---------------18(8x)----------13(4x)--11(4x)-----|

GTR II
e|---------------------------------------------------------------------------|
B|---------------------------------------------------------------------------|
G|---------------------------------------------------------------------------|
D|---------------------------------------------------------------------------|
A|---------------------------------------------------------------------------|
D|---------------------------------------------------------------------------|

Give me reason, to fill this hole...
GTR I(2x)
e|-----------------------------------------------------------------------------|
B|-----------------------------------------------------------------------------|
G|-----------------------------------------------------------------------------|
D|-----------------------------------------------------------------------------|
A|-----------------------------------------------------------------------------|
D|-----8-8-8-8-8-8-8-8-11(8x)---------------18(8x)----------13(4x)--11(4x)-----|

GTR II(2x)
e|---------------------------------------------------------------------------|
B|---------------------------------------------------------------------------|
G|---------------------------------------------------------------------------|
D|---------------------------------------------------------------------------|
A|---------------------------------------------------------------------------|
D|-----3-3-3-3-3-3-3-3-3-3-3-3-3-3-3-3-1-1-1-1-1-1-1-1-8-8-8-8-8-8-8-8-------|

Will it be enough to reach the truth that lies...
GTR I
e|---------------------------------------------------------------------------|
B|---------------------------------------------------------------------------|
G|---------------------------------------------------------------------------|
D|---------------------------------------------------------------------------|
A|---------------------------------------------------------------------------|
D|------16(16x)-------------------------13(16x)------------------------------|

GTR II
e|---------------------------------------------------------------------------|
B|---------------------------------------------------------------------------|
G|---------------------------------------------------------------------------|
D|---------------------------------------------------------------------------|
A|---------------------------------------------------------------------------|
D|-----6-6-6-6-6-6-6-6-6-6-6-6-6-6-6-6-8-8-8-8-8-8-8-8-8-8-8-8-8-8-8-8-------|
Across this new divide...
Outtro(2x):
GTR I
e|---------------------------------------------------------------------------|
B|---------------------------------------------------------------------------|
G|---------------------------------------------------------------------------|
D|---------------------------------------------------------------------------|
A|-----11-11--8---------15-15--8----------18-18--13--------15-15--8----------|
D|---------------------------------------------------------------------------|

GTR II
e|---------------------------------------------------------------------------|
B|---------------------------------------------------------------------------|
G|---------------------------------------------------------------------------|
D|-----3-3-3-3-3-3-3-3-6-6-6-6-6-6-6-6-1-1-1-1-1-1-1-1-8-8-8-8-8-8-8-8-------|
A|-----3-3-3-3-3-3-3-3-6-6-6-6-6-6-6-6-1-1-1-1-1-1-1-1-8-8-8-8-8-8-8-8-------|
D|-----3-3-3-3-3-3-3-3-6-6-6-6-6-6-6-6-1-1-1-1-1-1-1-1-8-8-8-8-8-8-8-8-------|
GTR II fades out on the 3rd fret chord during this time, then

GTR I
e|---------------------------------------------------------------------------|
B|---------------------------------------------------------------------------|
G|---------------------------------------------------------------------------|
D|---------------------------------------------------------------------------|
A|------11--8----------15--8-----------18--13---------15--8------------------|
D|---------------------------------------------------------------------------|

Please rate and comment on this! This is my first tab so constructive criticism is welcomed.

            
            
Suggest correction
Creating personal tab
Creating personal tab
You can edit any tab online and save it as your Personal.

You can edit, replace or remove any tab part or add personal notes – all changes will be seen only by you.

Personal tabs can be accessed anytime from any device, even offline.
Learn more »
comments
print report bad tab
5 comments total. Showing first comments.
0 reply
goneforeverxxx 30 May 22, 2009 02:32 AM

no drop d its played on the 8th fret on the 5th string and the intro is like this:
-----------------------------------------
-----------------------------------------
-----------------------------------------
-------11----14-----11-------------------
-11--------------14----------------------
----13----13-----------13----------------

0 reply
Zecrah 30 May 22, 2009 10:20 AM

Apologies for double post, or even triple. Computer problems ^^

0 reply
goneforeverxxx 30 May 24, 2009 02:24 AM

oops sorry bout that i made a mistake its:
-----------------------------------------
-----------------------------------------
-----------------------------------------
-------11----13-----11-------------------
-11--------------13----------------------
----13----13-----------13----------------

guest
You may want to rate the tab now too:
select rating
Wanna post a correction for this tab? Suggest correction