Oops, an error
Loading. Please wait.
16,521 views 6 this week
3 commentsread comments
1 2 3 4 5
2 more votes to show rating
add to favorites
×
Save as Personal and add changes to this tab that will be seen only by you. Learn more ›
×
You can save this tab as Personal to edit and correct it or add notes. All changes will be seen only by you. Learn more »
launch autoscroll
font size
0
reset
how to read this tab
guitar tuner
backing track
0:00
0:00
edit
Autoscroll
slow
fast
+/-
esc
set tempo
stop
Author
NEW DIVIDE - LINKIN PARK

Tabbed by Jay

taken multiple parts from other tabs and added few bars of my own, no credit for this one. (:

Guitar 1 (DADGBE)
Guitar 2 (DADGBE)  
Guitar 3 (DADGBE)

Intro

Intro x4 (Guitar 1)
|-----------------------------------------------------------------|
|-----------------------------------------------------------------|
|-----------------------------------------------------------------|
|-------------10----------13-----8-----10-------------------------|
|--11---8~-----------8~----------------------8--------------------|
|-----------------------------------------------------------------|
After Second One ->
 

Guitar 2 x2
|-----------------|-----------------|-----------------|-------------------|
|-----------------|-----------------|-----------------|-------------------|
|-----------------|-----------------|-----------------|-------------------|
|-3-3-3-3-3-3-3-3-|-6-6-6-6-6-6-6-6-|-1-1-1-1-1-1-1-1-|-8-8-8-8-8-8-8-8---|
|-3-3-3-3-3-3-3-3-|-6-6-6-6-6-6-6-6-|-1-1-1-1-1-1-1-1-|-8-8-8-8-8-8-8-8---|
|-3-3-3-3-3-3-3-3-|-6-6-6-6-6-6-6-6-|-1-1-1-1-1-1-1-1-|-8-8-8-8-8-8-8-8---| 

Guitar 3 x2
|-------------------------|-------------------------|-----------------|
|-------------------------|-------------------------|-----------------|
|-10-10-10-10-10-10-10-10-|-10-10-10-10-10-10-10-10-|-8-8-8-8-8-8-8-8-|
|-------------------------|-------------------------|-----------------|
|-8--8--8--8--8--8--8--8--|-8--8--8--8--8--8--8--8--|-6-6-6-6-6-6-6-6-|
|-------------------------|-------------------------|-----------------|

|-------------------------|
|-------------------------|
|-12-12-12-12-12-12-12-12-|
|-------------------------|
|-10-10-10-10-10-10-10-10-|
|-------------------------| 

Chorus 

Guitar 2 X5 (plays right through chorus)
|-----------------|-----------------|-----------------|-------------------|
|-----------------|-----------------|-----------------|-------------------|
|-----------------|-----------------|-----------------|-------------------|
|-3-3-3-3-3-3-3-3-|-6-6-6-6-6-6-6-6-|-1-1-1-1-1-1-1-1-|-8-8-8-8-8-8-8-8---|
|-3-3-3-3-3-3-3-3-|-6-6-6-6-6-6-6-6-|-1-1-1-1-1-1-1-1-|-8-8-8-8-8-8-8-8---|
|-3-3-3-3-3-3-3-3-|-6-6-6-6-6-6-6-6-|-1-1-1-1-1-1-1-1-|-8-8-8-8-8-8-8-8---| 

Guitar 3 
|-------------------------|-------------------------|-----------------|
|-------------------------|-------------------------|-----------------|
|-10-10-10-10-10-10-10-10-|-10-10-10-10-10-10-10-10-|-8-8-8-8-8-8-8-8-|
|-------------------------|-------------------------|-----------------|
|-8--8--8--8--8--8--8--8--|-8--8--8--8--8--8--8--8--|-6-6-6-6-6-6-6-6-|
|-------------------------|-------------------------|-----------------|

|-------------------------|-------------------------|-----------------|
|-------------------------|-------------------------|-----------------|
|-12-12-12-12-12-12-12-12-|-10-10-10-10-10-10-10-10-|-8-8-8-8-8-8-8-8-|
|-------------------------|-------------------------|-----------------|
|-10-10-10-10-10-10-10-10-|-8--8--8--8--8--8--8--8--|-6-6-6-6-6-6-6-6-|
|-------------------------|-------------------------|-----------------|

|-------------------------|-------------------------|
|-------------------------|-------------------------|
|-12-12-12-12-12-12-12-12-|-13-13-13-13-11-11-11-11-|
|-------------------------|-------------------------|
|-10-10-10-10-10-10-10-10-|-11-11-11-11--9--9--9--9-|
|-------------------------|-------------------------|

|-------------------------|-------------------|-------------------------|
|-------------------------|-------------------|-------------------------|
|-10-10-10-10-10-10-10-10-|-8-8-8-8-8-8-8-8-8-|-12-12-12-12-12-12-12-12-|
|-------------------------|-------------------|-------------------------|
|-8--8--8--8--8--8--8--8--|-6-6-6-6-6-6-6-6-6-|-10-10-10-10-10-10-10-10-|
|-------------------------|-------------------|-------------------------|

|-------------------------|
|-------------------------|
|-11-11-11-11-11-11-11-11-|
|-------------------------|
|--9--9--9--9--9--9--9--9-|
|-------------------------|

Then . . (still Guitar 2)
|-------------------------|
|-------------------------|
|--13------15-------------|
|-----x16------x16--------|
|--11------13-------------|
|-------------------------|  

|-------------------------|-------------------------|-----------------|
|-------------------------|-------------------------|-----------------|
|-10-10-10-10-10-10-10-10-|-10-10-10-10-10-10-10-10-|-8-8-8-8-8-8-8-8-|
|-------------------------|-------------------------|-----------------|
|-8--8--8--8--8--8--8--8--|-8--8--8--8--8--8--8--8--|-6-6-6-6-6-6-6-6-|
|-------------------------|-------------------------|-----------------|

|-------------------------|
|-------------------------|
|-12-12-12-12-12-12-12-12-|
|-------------------------|
|-10-10-10-10-10-10-10-10-|
|-------------------------|


Guitar 1 (On last chorus riff after vocals finish) 

|-----------------------------------------------------------------|
|-----------------------------------------------------------------|
|-----------------------------------------------------------------|
|-------------10----------13-----8-----10-------------------------|
|--11---8~-----------8~----------------------8--------------------|
|-----------------------------------------------------------------| x1

Verse -> No Guitar

Chorus 2

Guitar 2 X2
|-----------------|-----------------|-----------------|-------------------|
|-----------------|-----------------|-----------------|-------------------|
|-----------------|-----------------|-----------------|-------------------|
|-3-3-3-3-3-3-3-3-|-6-6-6-6-6-6-6-6-|-1-1-1-1-1-1-1-1-|-8-8-8-8-8-8-8-8---|
|-3-3-3-3-3-3-3-3-|-6-6-6-6-6-6-6-6-|-1-1-1-1-1-1-1-1-|-8-8-8-8-8-8-8-8---|
|-3-3-3-3-3-3-3-3-|-6-6-6-6-6-6-6-6-|-1-1-1-1-1-1-1-1-|-8-8-8-8-8-8-8-8---| 

Guitar 3 X2
|-------------------------|-------------------------|-----------------|
|-------------------------|-------------------------|-----------------|
|-10-10-10-10-10-10-10-10-|-10-10-10-10-10-10-10-10-|-8-8-8-8-8-8-8-8-|
|-------------------------|-------------------------|-----------------|
|-8--8--8--8--8--8--8--8--|-8--8--8--8--8--8--8--8--|-6-6-6-6-6-6-6-6-|
|-------------------------|-------------------------|-----------------|

|-------------------------|
|-------------------------|
|-12-12-12-12-12-12-12-12-|
|-------------------------|
|-10-10-10-10-10-10-10-10-|
|-------------------------| 


Bridge Pt. 1 (No guitar, for now)

Bridge Pt. 2

Guitar 2 X2
|-----------------|-----------------|-----------------|-------------------|
|-----------------|-----------------|-----------------|-------------------|
|-----------------|-----------------|-----------------|-------------------|
|-3-3-3-3-3-3-3-3-|-6-6-6-6-6-6-6-6-|-1-1-1-1-1-1-1-1-|-8-8-8-8-8-8-8-8---|
|-3-3-3-3-3-3-3-3-|-6-6-6-6-6-6-6-6-|-1-1-1-1-1-1-1-1-|-8-8-8-8-8-8-8-8---|
|-3-3-3-3-3-3-3-3-|-6-6-6-6-6-6-6-6-|-1-1-1-1-1-1-1-1-|-8-8-8-8-8-8-8-8---| 

Guitar 3 X2
|-------------------------|-------------------------|-----------------|
|-------------------------|-------------------------|-----------------|
|-10-10-10-10-10-10-10-10-|-10-10-10-10-10-10-10-10-|-8-8-8-8-8-8-8-8-|
|-------------------------|-------------------------|-----------------|
|-8--8--8--8--8--8--8--8--|-8--8--8--8--8--8--8--8--|-6-6-6-6-6-6-6-6-|
|-------------------------|-------------------------|-----------------|

|-------------------------|
|-------------------------|
|-12-12-12-12-12-12-12-12-|
|-------------------------|
|-10-10-10-10-10-10-10-10-|
|-------------------------| 

Guitar 2 
|-----------------|-----------------|-----------------|-------------------|
|-----------------|-----------------|-----------------|-------------------|
|-----------------|-----------------|-----------------|-------------------|
|-3-3-3-3-3-3-3-3-|-6-6-6-6-6-6-6-6-|-1-1-1-1-1-1-1-1-|-8-8-8-8-8-8-8-8---|
|-3-3-3-3-3-3-3-3-|-6-6-6-6-6-6-6-6-|-1-1-1-1-1-1-1-1-|-8-8-8-8-8-8-8-8---|
|-3-3-3-3-3-3-3-3-|-6-6-6-6-6-6-6-6-|-1-1-1-1-1-1-1-1-|-8-8-8-8-8-8-8-8---| 


Guitar 3 X2
|---------------------------------------------|
|---------------------------------------------|
|-9-9-9-9-11-11-11-11-12-12-12-12-14-14-14-14-|
|---------------------------------------------|
|-7-7-7-7-9--9--9--9--10-10-10-10-12-12-12-12-|
|---------------------------------------------|

Then Guitar 3(Solo part)

|-------------------------|-------------------------|-----------------|
|-------------------------|-------------------------|-----------------|
|-10-10-10-10-10-10-10-10-|-10-10-10-10-10-10-10-10-|-8-8-8-8-8-8-8-8-|
|-------------------------|-------------------------|-----------------|
|-8--8--8--8--8--8--8--8--|-8--8--8--8--8--8--8--8--|-6-6-6-6-6-6-6-6-|
|-------------------------|-------------------------|-----------------|

|-------------------------|-------------------------|-----------------|
|-------------------------|-------------------------|-----------------|
|-12-12-12-12-12-12-12-12-|-10-10-10-10-10-10-10-10-|-8-8-8-8-8-8-8-8-|
|-------------------------|-------------------------|-----------------|
|-10-10-10-10-10-10-10-10-|-8--8--8--8--8--8--8--8--|-6-6-6-6-6-6-6-6-|
|-------------------------|-------------------------|-----------------|

|-------------------------|-------------------------|
|-------------------------|-------------------------|
|-12-12-12-12-12-12-12-12-|-13-13-13-13-11-11-11-11-|
|-------------------------|-------------------------|
|-10-10-10-10-10-10-10-10-|-11-11-11-11--9--9--9--9-|
|-------------------------|-------------------------|


Last Chorus

Guitar 2 (till finish)
|-----------------|-----------------|-----------------|-------------------|
|-----------------|-----------------|-----------------|-------------------|
|-----------------|-----------------|-----------------|-------------------|
|-3-3-3-3-3-3-3-3-|-6-6-6-6-6-6-6-6-|-1-1-1-1-1-1-1-1-|-8-8-8-8-8-8-8-8---|
|-3-3-3-3-3-3-3-3-|-6-6-6-6-6-6-6-6-|-1-1-1-1-1-1-1-1-|-8-8-8-8-8-8-8-8---|
|-3-3-3-3-3-3-3-3-|-6-6-6-6-6-6-6-6-|-1-1-1-1-1-1-1-1-|-8-8-8-8-8-8-8-8---| 

Guitar 3 
|-------------------------|-----------------|-------------------------|
|-------------------------|-----------------|-------------------------|
|-10-10-10-10-10-10-10-10-|-8-8-8-8-8-8-8-8-|-12-12-12-12-12-12-12-12-|
|-------------------------|-----------------|-------------------------|
|--8--8--8--8--8--8--8--8-|-6-6-6-6-6-6-6-6-|-10-10-10-10-10-10-10-10-|
|-------------------------|-----------------|-------------------------|

|-------------------------|-------------------|
|-------------------------|-------------------|
|-10-10-10-10-10-10-10-10-|--13--------15-----|
|-------------------------|----x16--------x16-|
|--8--8--8--8--8--8--8--8-|--11--------13-----|


(Till Finish)
|-------------------------|-------------------------|-----------------|
|-------------------------|-------------------------|-----------------|
|-10-10-10-10-10-10-10-10-|-10-10-10-10-10-10-10-10-|-8-8-8-8-8-8-8-8-|
|-------------------------|-------------------------|-----------------|
|-8--8--8--8--8--8--8--8--|-8--8--8--8--8--8--8--8--|-6-6-6-6-6-6-6-6-|
|-------------------------|-------------------------|-----------------|

|-------------------------|
|-------------------------|
|-12-12-12-12-12-12-12-12-|
|-------------------------|
|-10-10-10-10-10-10-10-10-|
|-------------------------| 

Guitar 1: During end of last chorus and finishes on. . 

|-----------------------------------------------------------------|
|-----------------------------------------------------------------|
|-----------------------------------------------------------------|
|-------------10----------13-----8-----10-------------------------|
|--11---8~-----------8~----------------------8--------------------|
|-----------------------------------------------------------------|

            
            
Suggest correction
Creating personal tab
Creating personal tab
You can edit any tab online and save it as your Personal.

You can edit, replace or remove any tab part or add personal notes – all changes will be seen only by you.

Personal tabs can be accessed anytime from any device, even offline.
Learn more »
Give kudos to tab author, rate the tab!
1 2 3 4 5
comments
print report bad tab
3 comments total.
0 reply
ezza619 51 May 23, 2009 12:16 AM

hey look my intro

nah i dun care lolz

its good.

0 reply
goneforeverxxx 30 May 23, 2009 07:55 AM

holy shit its played 8th fret on the 5th string whats with the drop d???

0 reply
justo11 10 Jul 27, 2009 12:56 PM

wheres this 3rd guitar coming from

guest
You may want to rate the tab now too:
select rating
Wanna post a correction for this tab? Suggest correction