Oops, an error
Loading. Please wait.
We have an official No Roads Left tab made by UG professional guitarists. Check out the tab »
×
1,685 views 3 this week
2 commentsread comments
1 2 3 4 5
3 more votes to show rating
add to favorites
×
Save as Personal and add changes to this tab that will be seen only by you. Learn more ›
×
You can save this tab as Personal to edit and correct it or add notes. All changes will be seen only by you. Learn more »
launch autoscroll
font size
0
reset
how to read this tab
guitar tuner
edit
Autoscroll
slow
fast
+/-
esc
set tempo
stop
Author
Full credit goes to ASTAT of LPA

No Roads Left - Linkin Park

Intro - Guitar 1
|-8---8--8------10--10-10--10-10--------8---8--8------10--10-10--10-10--------|
|-10--10-10--10-10--10-10--10-10--10-10-10--10-10--10-10--10-10--10-10--10-10-|
|-----------------------------------------------------------------------------|
|-----------------------------------------------------------------------------|
|-----------------------------------------------------------------------------|
|-----------------------------------------------------------------------------|

|-8---8--8------10--10-10--10-10--------8---8--8------10--10-10--10-10--------|
|-10--10-10--10-10--10-10--10-10--10-10-10--10-10--10-10--10-10--10-10--10-10-|
|-----------------------------------------------------------------------------|
|-----------------------------------------------------------------------------|
|-----------------------------------------------------------------------------|
|-----------------------------------------------------------------------------|

First Verse - Guitar 1
|-8---8--8------10--10-10--10-10--------8---8--8------10--10-10--10-10--------|
|-10--10-10--10-10--10-10--10-10--10-10-10--10-10--10-10--10-10--10-10--10-10-|
|-----------------------------------------------------------------------------|
|-----------------------------------------------------------------------------|
|-----------------------------------------------------------------------------|
|-----------------------------------------------------------------------------|

|-8---8--8------10--10-10--10-10--------8---8--8------10--10-10--10-10--------|
|-10--10-10--10-10--10-10--10-10--10-10-10--10-10--10-10--10-10--10-10--10-10-|
|-----------------------------------------------------------------------------|
|-----------------------------------------------------------------------------|
|-----------------------------------------------------------------------------|
|-----------------------------------------------------------------------------|

|-8---8--8------10--10-10--10-10--------8---8--8------10--10-10--10-10--------|
|-10--10-10--10-10--10-10--10-10--10-10-10--10-10--10-10--10-10--10-10--10-10-|
|-----------------------------------------------------------------------------|
|-----------------------------------------------------------------------------|
|-----------------------------------------------------------------------------|
|-----------------------------------------------------------------------------|

|-8---8--8------10--10-10--10-10--------8---8--8------10--10-10--10-10--------|
|-10--10-10--10-10--10-10--10-10--10-10-10--10-10--10-10--10-10--10-10--10-10-|
|-----------------------------------------------------------------------------|
|-----------------------------------------------------------------------------|
|-----------------------------------------------------------------------------|
|-----------------------------------------------------------------------------|

|-8---8--8------10--10-10--10-10--------8---8--8------10--10-10--10-10--------|
|-10--10-10--10-10--10-10--10-10--10-10-10--10-10--10-10--10-10--10-10--10-10-|
|-----------------------------------------------------------------------------|
|-----------------------------------------------------------------------------|
|-----------------------------------------------------------------------------|
|-----------------------------------------------------------------------------|

|-8---8--8------10--10-10--10-10--------8---8--8------10--10-10--10-10--------|
|-10--10-10--10-10--10-10--10-10--10-10-10--10-10--10-10--10-10--10-10--10-10-|
|-----------------------------------------------------------------------------|
|-----------------------------------------------------------------------------|
|-----------------------------------------------------------------------------|
|-----------------------------------------------------------------------------|

|-8---8--8------10--10-10--10-10--------8---8--8------10--10-10--10-10--------|
|-10--10-10--10-10--10-10--10-10--10-10-10--10-10--10-10--10-10--10-10--10-10-|
|-----------------------------------------------------------------------------|
|-----------------------------------------------------------------------------|
|-----------------------------------------------------------------------------|
|-----------------------------------------------------------------------------|

|-8---8--8------10--10-10--10-10--------8---8--8------10--10-10--10-10--------|
|-10--10-10--10-10--10-10--10-10--10-10-10--10-10--10-10--10-10--10-10--10-10-|
|-----------------------------------------------------------------------------|
|-----------------------------------------------------------------------------|
|-----------------------------------------------------------------------------|
|-----------------------------------------------------------------------------|

Pre-Chorus - Guitars 2 and 3
|-----------------------------------------------------------------------------|
|-----------------------------------------------------------------------------|
|-10--10-10--10-10----10--10-10--10-10-10/12-12-12--12-12----12--12-12--12-12-|
|-x---x--x---x--x-----x---x--x---x--x--x--x--x--x---x--x-----x---x--x---x--x--|
|-8---8--8---8--8-----8---8--8---8--8--8-/8--8--8---10-10----10--10-10--10-10-|
|-----------------------------------------------------------------------------|

(Guitar 1)
|-8---8--8------10--10-10--10-10--------8---8--8------10--10-10--10-10--------|
|-10--10-10--10-10--10-10--10-10--10-10-10--10-10--10-10--10-10--10-10--10-10-|
|-----------------------------------------------------------------------------|
|-----------------------------------------------------------------------------|
|-----------------------------------------------------------------------------|
|-----------------------------------------------------------------------------|

(Guitars 2 and 3)
|-----------------------------------------------------------------------------|
|-----------------------------------------------------------------------------|
|-10--10-10--10-10----10--10-10--10-10-10/12-12-12--12-12----12--12-12--12-12-|
|-x---x--x---x--x-----x---x--x---x--x--x--x--x--x---x--x-----x---x--x---x--x--|
|-8---8--8---8--8-----8---8--8---8--8--8-/8--8--8---10-10----10--10-10--10-10-|
|-----------------------------------------------------------------------------|

Chorus
|-------------------------------------------------------------------------------------------------|
|-------------------------------------------------------------------------------------------------|
|-17-17-17-17-17-17-17-17-16-16-16-16-16-16-16-16-17-17-17-17-17-17-17-17-17-17-17-17-19-19-19-19-|
|-x--x--x--x--x--x--x--x--x--x--x--x--x--x--x--x--x--x--x--x--x--x--x--x--x--x--x--x--x--x--x--x--|
|-15-15-15-15-15-15-15-15-14-14-14-14-14-14-14-14-15-15-15-15-15-15-15-15-15-15-15-15-17-17-17-17-|
|-------------------------------------------------------------------------------------------------|
|Guitars 2 and 3
|
|-------------------------------------------------------------------------------------------------|
|-------------------------------------------------------------------------------------------------|
|-------------------------------------------------------------------------------------------------|
|-7--7--7--7--7--7--7--7--5--5--5--5--5--5--5--5--3--3--3--3--3--3--3--3--10-10-10-10-9--9--9--9--|
|-7--7--7--7--7--7--7--7--5--5--5--5--5--5--5--5--3--3--3--3--3--3--3--3--10-10-10-10-9--9--9--9--|
|-7--7--7--7--7--7--7--7--5--5--5--5--5--5--5--5--3--3--3--3--3--3--3--3--10-10-10-10-9--9--9--9--|
|Guitar 4

|-------------------------------------------------------------------------------------------------|
|-------------------------------------------------------------------------------------------------|
|-17-17-17-17-17-17-17-17-16-16-16-16-16-16-16-16-17-17-17-17-17-17-17-17-17-17-17-17-19-19-19-19-|
|-x--x--x--x--x--x--x--x--x--x--x--x--x--x--x--x--x--x--x--x--x--x--x--x--x--x--x--x--x--x--x--x--|
|-15-15-15-15-15-15-15-15-14-14-14-14-14-14-14-14-15-15-15-15-15-15-15-15-15-15-15-15-17-17-17-17-|
|-------------------------------------------------------------------------------------------------|
|Guitars 2 and 3
|
|-------------------------------------------------------------------------------------------------|
|-------------------------------------------------------------------------------------------------|
|-------------------------------------------------------------------------------------------------|
|-7--7--7--7--7--7--7--7--5--5--5--5--5--5--5--5--3--3--3--3--3--3--3--3--10-10-10-10-9--9--9--9--|
|-7--7--7--7--7--7--7--7--5--5--5--5--5--5--5--5--3--3--3--3--3--3--3--3--10-10-10-10-9--9--9--9--|
|-7--7--7--7--7--7--7--7--5--5--5--5--5--5--5--5--3--3--3--3--3--3--3--3--10-10-10-10-9--9--9--9--|
|Guitar 4

|-------------------------------------------|
|-------------------------------------------|
|-19---19---19---------19---19---19---------|
|-x----x----x----------x----x----x----------|
|-17---17---17---------17---17---17---------|
|-------------------------------------------|
|Guitars 2 and 3
|
|-------------------------------------------|
|-------------------------------------------|
|-------------------------------------------|
|-0--0-0----0----------5--5-5----5----------|
|-0--0-0----0----------5--5-5----5----------|
|-0--0-0----0----------5--5-5----5----------|
|Guitar 4

Post-Chorus - Guitar 1
|-8---8--8------10--10-10--10-10--------8---8--8------10--10-10--10-10--------|
|-10--10-10--10-10--10-10--10-10--10-10-10--10-10--10-10--10-10--10-10--10-10-|
|-----------------------------------------------------------------------------|
|-----------------------------------------------------------------------------|
|-----------------------------------------------------------------------------|
|-----------------------------------------------------------------------------|

|-8---8--8------10--10-10--10-10--------8---8--8------10--10-10--10-10--------|
|-10--10-10--10-10--10-10--10-10--10-10-10--10-10--10-10--10-10--10-10--10-10-|
|-----------------------------------------------------------------------------|
|-----------------------------------------------------------------------------|
|-----------------------------------------------------------------------------|
|-----------------------------------------------------------------------------|

2nd Verse - Guitar 1
|-8---8--8------10--10-10--10-10--------8---8--8------10--10-10--10-10--------|
|-10--10-10--10-10--10-10--10-10--10-10-10--10-10--10-10--10-10--10-10--10-10-|
|-----------------------------------------------------------------------------|
|-----------------------------------------------------------------------------|
|-----------------------------------------------------------------------------|
|-----------------------------------------------------------------------------|

|-8---8--8------10--10-10--10-10--------8---8--8------10--10-10--10-10--------|
|-10--10-10--10-10--10-10--10-10--10-10-10--10-10--10-10--10-10--10-10--10-10-|
|-----------------------------------------------------------------------------|
|-----------------------------------------------------------------------------|
|-----------------------------------------------------------------------------|
|-----------------------------------------------------------------------------|

|-8---8--8------10--10-10--10-10--------8---8--8------10--10-10--10-10--------|
|-10--10-10--10-10--10-10--10-10--10-10-10--10-10--10-10--10-10--10-10--10-10-|
|-----------------------------------------------------------------------------|
|-----------------------------------------------------------------------------|
|-----------------------------------------------------------------------------|
|-----------------------------------------------------------------------------|

|-8---8--8------10--10-10--10-10--------8---8--8------10--10-10--10-10--------|
|-10--10-10--10-10--10-10--10-10--10-10-10--10-10--10-10--10-10--10-10--10-10-|
|-----------------------------------------------------------------------------|
|-----------------------------------------------------------------------------|
|-----------------------------------------------------------------------------|
|-----------------------------------------------------------------------------|

|-8---8--8------10--10-10--10-10--------8---8--8------10--10-10--10-10--------|
|-10--10-10--10-10--10-10--10-10--10-10-10--10-10--10-10--10-10--10-10--10-10-|
|-----------------------------------------------------------------------------|
|-----------------------------------------------------------------------------|
|-----------------------------------------------------------------------------|
|-----------------------------------------------------------------------------|

|-8---8--8------10--10-10--10-10--------8---8--8------10--10-10--10-10--------|
|-10--10-10--10-10--10-10--10-10--10-10-10--10-10--10-10--10-10--10-10--10-10-|
|-----------------------------------------------------------------------------|
|-----------------------------------------------------------------------------|
|-----------------------------------------------------------------------------|
|-----------------------------------------------------------------------------|

|-8---8--8------10--10-10--10-10--------8---8--8------10--10-10--10-10--------|
|-10--10-10--10-10--10-10--10-10--10-10-10--10-10--10-10--10-10--10-10--10-10-|
|-----------------------------------------------------------------------------|
|-----------------------------------------------------------------------------|
|-----------------------------------------------------------------------------|
|-----------------------------------------------------------------------------|

|-8---8--8------10--10-10--10-10--------8---8--8------10--10-10--10-10--------|
|-10--10-10--10-10--10-10--10-10--10-10-10--10-10--10-10--10-10--10-10--10-10-|
|-----------------------------------------------------------------------------|
|-----------------------------------------------------------------------------|
|-----------------------------------------------------------------------------|
|-----------------------------------------------------------------------------|

Pre-Chorus - Guitars 2 and 3
|-----------------------------------------------------------------------------|
|-----------------------------------------------------------------------------|
|-10--10-10--10-10----10--10-10--10-10-10/12-12-12--12-12----12--12-12--12-12-|
|-x---x--x---x--x-----x---x--x---x--x--x--x--x--x---x--x-----x---x--x---x--x--|
|-8---8--8---8--8-----8---8--8---8--8--8-/8--8--8---10-10----10--10-10--10-10-|
|-----------------------------------------------------------------------------|

(Guitar 1)
|-8---8--8------10--10-10--10-10--------8---8--8------10--10-10--10-10--------|
|-10--10-10--10-10--10-10--10-10--10-10-10--10-10--10-10--10-10--10-10--10-10-|
|-----------------------------------------------------------------------------|
|-----------------------------------------------------------------------------|
|-----------------------------------------------------------------------------|
|-----------------------------------------------------------------------------|

(Guitars 2 and 3)
|-----------------------------------------------------------------------------|
|-----------------------------------------------------------------------------|
|-10--10-10--10-10----10--10-10--10-10-10/12-12-12--12-12----12--12-12--12-12-|
|-x---x--x---x--x-----x---x--x---x--x--x--x--x--x---x--x-----x---x--x---x--x--|
|-8---8--8---8--8-----8---8--8---8--8--8-/8--8--8---10-10----10--10-10--10-10-|
|-----------------------------------------------------------------------------|

(Guitar 1)
|-8---8--8------10--10-10--10-10--------8---8--8------10--10-10--10-10--------|
|-10--10-10--10-10--10-10--10-10--10-10-10--10-10--10-10--10-10--10-10--10-10-|
|-----------------------------------------------------------------------------|
|-----------------------------------------------------------------------------|
|-----------------------------------------------------------------------------|
|-----------------------------------------------------------------------------|

(Guitars 2 and 3)
|-----------------------------------------------------------------------------|
|-----------------------------------------------------------------------------|
|-10--10-10--10-10----10--10-10--10-10-10/12-12-12--12-12---------------------|
|-x---x--x---x--x-----x---x--x---x--x--x--x--x--x---x--x----------------------|
|-8---8--8---8--8-----8---8--8---8--8--8-/8--8--8---10-10---------------------|
|-----------------------------------------------------------------------------|

Chorus
|-------------------------------------------------------------------------------------------------|
|-------------------------------------------------------------------------------------------------|
|-17-17-17-17-17-17-17-17-16-16-16-16-16-16-16-16-17-17-17-17-17-17-17-17-17-17-17-17-19-19-19-19-|
|-x--x--x--x--x--x--x--x--x--x--x--x--x--x--x--x--x--x--x--x--x--x--x--x--x--x--x--x--x--x--x--x--|
|-15-15-15-15-15-15-15-15-14-14-14-14-14-14-14-14-15-15-15-15-15-15-15-15-15-15-15-15-17-17-17-17-|
|-------------------------------------------------------------------------------------------------|
|Guitars 2 and 3
|
|-------------------------------------------------------------------------------------------------|
|-------------------------------------------------------------------------------------------------|
|-------------------------------------------------------------------------------------------------|
|-7--7--7--7--7--7--7--7--5--5--5--5--5--5--5--5--3--3--3--3--3--3--3--3--10-10-10-10-9--9--9--9--|
|-7--7--7--7--7--7--7--7--5--5--5--5--5--5--5--5--3--3--3--3--3--3--3--3--10-10-10-10-9--9--9--9--|
|-7--7--7--7--7--7--7--7--5--5--5--5--5--5--5--5--3--3--3--3--3--3--3--3--10-10-10-10-9--9--9--9--|
|Guitar 4

|-------------------------------------------------------------------------------------------------|
|-------------------------------------------------------------------------------------------------|
|-17-17-17-17-17-17-17-17-16-16-16-16-16-16-16-16-17-17-17-17-17-17-17-17-17-17-17-17-19-19-19-19-|
|-x--x--x--x--x--x--x--x--x--x--x--x--x--x--x--x--x--x--x--x--x--x--x--x--x--x--x--x--x--x--x--x--|
|-15-15-15-15-15-15-15-15-14-14-14-14-14-14-14-14-15-15-15-15-15-15-15-15-15-15-15-15-17-17-17-17-|
|-------------------------------------------------------------------------------------------------|
|Guitars 2 and 3
|
|-------------------------------------------------------------------------------------------------|
|-------------------------------------------------------------------------------------------------|
|-------------------------------------------------------------------------------------------------|
|-7--7--7--7--7--7--7--7--5--5--5--5--5--5--5--5--3--3--3--3--3--3--3--3--10-10-10-10-9--9--9--9--|
|-7--7--7--7--7--7--7--7--5--5--5--5--5--5--5--5--3--3--3--3--3--3--3--3--10-10-10-10-9--9--9--9--|
|-7--7--7--7--7--7--7--7--5--5--5--5--5--5--5--5--3--3--3--3--3--3--3--3--10-10-10-10-9--9--9--9--|
|Guitar 4

|-------------------------------------------|
|-------------------------------------------|
|-19---19---19---------19---19---19---------|
|-x----x----x----------x----x----x----------|
|-17---17---17---------17---17---17---------|
|-------------------------------------------|
|Guitars 2 and 3
|
|-------------------------------------------|
|-------------------------------------------|
|-------------------------------------------|
|-0----0----0----------5----5----5----------|
|-0----0----0----------5----5----5----------|
|-0----0----0----------5----5----5----------|
|Guitar 4

Bridge - Guitars 4, 5, and 6
|-----------------------------------------------------------------|
|-----------------------------------------------------------------|
|-----------------------------------------------------------------|
|-0-0-0-0-0-0-0-0-3-3-3-3-3-3-3-3-7-7-7-7-7-7-7-7-5-5-5-5-5-5-5-5-|
|-0-0-0-0-0-0-0-0-3-3-3-3-3-3-3-3-7-7-7-7-7-7-7-7-5-5-5-5-5-5-5-5-|
|-0-0-0-0-0-0-0-0-3-3-3-3-3-3-3-3-7-7-7-7-7-7-7-7-5-5-5-5-5-5-5-5-|

|-----------------------------------------------------------------|
|-----------------------------------------------------------------|
|-----------------------------------------------------------------|
|-0-0-0-0-0-0-0-0-3-3-3-3-3-3-3-3-7-7-7-7-7-7-7-7-5-5-5-5-5-5-5-5-|
|-0-0-0-0-0-0-0-0-3-3-3-3-3-3-3-3-7-7-7-7-7-7-7-7-5-5-5-5-5-5-5-5-|
|-0-0-0-0-0-0-0-0-3-3-3-3-3-3-3-3-7-7-7-7-7-7-7-7-5-5-5-5-5-5-5-5-|

|---------------------------------|
|---------------------------------|
|---------------------------------|
|-5-5-5-5-5-5-5-5-5-5-5-5-5-5-5-5-|
|-5-5-5-5-5-5-5-5-5-5-5-5-5-5-5-5-|
|-5-5-5-5-5-5-5-5-5-5-5-5-5-5-5-5-|

Pre-Chorus - Guitars 2 and 3
|-----------------------------------------------------------------------------|
|-----------------------------------------------------------------------------|
|-10--10-10--10-10----10--10-10--10-10-10/12-12-12--12-12----12--12-12--12-12-|
|-x---x--x---x--x-----x---x--x---x--x--x--x--x--x---x--x-----x---x--x---x--x--|
|-8---8--8---8--8-----8---8--8---8--8--8-/8--8--8---10-10----10--10-10--10-10-|
|-----------------------------------------------------------------------------|

|-8---8--8------10--10-10--10-10--------8---8--8------10--10-10--10-10--------|
|-10--10-10--10-10--10-10--10-10--10-10-10--10-10--10-10--10-10--10-10--10-10-|
|-----------------------------------------------------------------------------|
|-----------------------------------------------------------------------------|
|-----------------------------------------------------------------------------|
|-----------------------------------------------------------------------------|
|Guitar 1
|
|-----------------------------------------------------------------------------|
|-----------------------------------------------------------------------------|
|-----------------------------------------------------------------------------|
|-7-------------7-----------------------7-------------7-----------------------|
|-7-------------7-----------------------7-------------7-----------------------|
|-7-------------7-----------------------7-------------7-----------------------|
|Guitars 5 and 6

|-----------------------------------------------------------------------------|
|-----------------------------------------------------------------------------|
|-10--10-10--10-10----10--10-10--10-10-10/12-12-12--12-12---------------------|
|-x---x--x---x--x-----x---x--x---x--x--x--x--x--x---x--x----------------------|
|-8---8--8---8--8-----8---8--8---8--8--8-/8--8--8---10-10---------------------|
|-----------------------------------------------------------------------------|
|Guitars 2 and 3
|
|-----------------------------------------------------------------------------|
|-----------------------------------------------------------------------------|
|-----------------------------------------------------------------------------|
|-3------3------3----------------------5--------5------5----------------------|
|-3------3------3----------------------5--------5------5----------------------|
|-3------3------3----------------------5--------5------5----------------------|
|Guitars 5 and 6

Final Chorus
|-------------------------------------------------------------------------------------------------|
|-------------------------------------------------------------------------------------------------|
|-17-17-17-17-17-17-17-17-16-16-16-16-16-16-16-16-17-17-17-17-17-17-17-17-17-17-17-17-19-19-19-19-|
|-x--x--x--x--x--x--x--x--x--x--x--x--x--x--x--x--x--x--x--x--x--x--x--x--x--x--x--x--x--x--x--x--|
|-15-15-15-15-15-15-15-15-14-14-14-14-14-14-14-14-15-15-15-15-15-15-15-15-15-15-15-15-17-17-17-17-|
|-------------------------------------------------------------------------------------------------|
|Guitars 2 and 3
|
|-------------------------------------------------------------------------------------------------|
|-------------------------------------------------------------------------------------------------|
|-------------------------------------------------------------------------------------------------|
|-7--7--7--7--7--7--7--7--5--5--5--5--5--5--5--5--3--3--3--3--3--3--3--3--10-10-10-10-9--9--9--9--|
|-7--7--7--7--7--7--7--7--5--5--5--5--5--5--5--5--3--3--3--3--3--3--3--3--10-10-10-10-9--9--9--9--|
|-7--7--7--7--7--7--7--7--5--5--5--5--5--5--5--5--3--3--3--3--3--3--3--3--10-10-10-10-9--9--9--9--|
|Guitars 4, 5, and 6

|-------------------------------------------------------------------------------------------------|
|-------------------------------------------------------------------------------------------------|
|-17-17-17-17-17-17-17-17-16-16-16-16-16-16-16-16-17-17-17-17-17-17-17-17-17-17-17-17-19-19-19-19-|
|-x--x--x--x--x--x--x--x--x--x--x--x--x--x--x--x--x--x--x--x--x--x--x--x--x--x--x--x--x--x--x--x--|
|-15-15-15-15-15-15-15-15-14-14-14-14-14-14-14-14-15-15-15-15-15-15-15-15-15-15-15-15-17-17-17-17-|
|-------------------------------------------------------------------------------------------------|
|Guitars 2 and 3
|
|-------------------------------------------------------------------------------------------------|
|-------------------------------------------------------------------------------------------------|
|-------------------------------------------------------------------------------------------------|
|-7--7--7--7--7--7--7--7--5--5--5--5--5--5--5--5--3--3--3--3--3--3--3--3--10-10-10-10-9--9--9--9--|
|-7--7--7--7--7--7--7--7--5--5--5--5--5--5--5--5--3--3--3--3--3--3--3--3--10-10-10-10-9--9--9--9--|
|-7--7--7--7--7--7--7--7--5--5--5--5--5--5--5--5--3--3--3--3--3--3--3--3--10-10-10-10-9--9--9--9--|
|Guitars 4, 5, and 6

|-------------------------------------------|
|-------------------------------------------|
|-19---19---19---------19---19---19---------|
|-x----x----x----------x----x----x----------|
|-17---17---17---------17---17---17---------|
|-------------------------------------------|
|Guitars 2 and 3
|
|-------------------------------------------|
|-------------------------------------------|
|-------------------------------------------|
|-0----0----0----------5----5----5----------|
|-0----0----0----------5----5----5----------|
|-0----0----0----------5----5----5----------|
|Guitars 4, 5, and 6

Outro - Guitar 1
|-8---8--8------10--10-10--10-10--------8---8--8------10--10-10--10-10--------|
|-10--10-10--10-10--10-10--10-10--10-10-10--10-10--10-10--10-10--10-10--10-10-|
|-----------------------------------------------------------------------------|
|-----------------------------------------------------------------------------|
|-----------------------------------------------------------------------------|
|-----------------------------------------------------------------------------|

|-8---8--8------10--10-10--10-10--------8---8--8------10--10-10--10-10--------|
|-10--10-10--10-10--10-10--10-10--10-10-10--10-10--10-10--10-10--10-10--------|
|-----------------------------------------------------------------------------|
|-----------------------------------------------------------------------------|
|-----------------------------------------------------------------------------|
|-----------------------------------------------------------------------------|

|-8---8--8------10--10-10--10-10--------8---8--8------10--10-10--10-10--------|
|-10--10-10--10-10--10-10--10-10--10-10-10--10-10--10-10--10-10--10-10--10-10-|
|-----------------------------------------------------------------------------|
|-----------------------------------------------------------------------------|
|-----------------------------------------------------------------------------|
|-----------------------------------------------------------------------------|

|-8---8--8------10--10-10--10-10--------8---8--8------10--10-10--10-10--------|
|-10--10-10--10-10--10-10--10-10--10-10-10--10-10--10-10--10-10--10-10--------|
|-----------------------------------------------------------------------------|
|-----------------------------------------------------------------------------|
|-----------------------------------------------------------------------------|
|-----------------------------------------------------------------------------|

|-8---8--8------10--10-10--10-10--------8---8--8------10--10-10--10-10--------|
|-10--10-10--10-10--10-10--10-10--10-10-10--10-10--10-10--10-10--10-10--10-10-|
|-----------------------------------------------------------------------------|
|-----------------------------------------------------------------------------|
|-----------------------------------------------------------------------------|
|-----------------------------------------------------------------------------|

|-8---8--8------10--10-10--10-10--------8---8--8------10--10-10--10-10--------|
|-10--10-10--10-10--10-10--10-10--10-10-10--10-10--10-10--10-10--10-10--------|
|-----------------------------------------------------------------------------|
|-----------------------------------------------------------------------------|
|-----------------------------------------------------------------------------|
|-----------------------------------------------------------------------------| 

            
            
Suggest correction
Creating personal tab
Creating personal tab
You can edit any tab online and save it as your Personal.

You can edit, replace or remove any tab part or add personal notes – all changes will be seen only by you.

Personal tabs can be accessed anytime from any device, even offline.
Learn more »
Give kudos to tab author, rate the tab!
1 2 3 4 5
comments
print report bad tab
2 comments total.
0 reply
Tomozaurus 230 Nov 26, 2008 12:23 PM

Theif. This is stolen from LPA.

0 reply
Mudamuckla 144 Nov 26, 2008 02:37 PM

yer no shit

guest
You may want to rate the tab now too:
select rating
Wanna post a correction for this tab? Suggest correction