Oops, an error
Loading. Please wait.
We have an official Numb tab made by UG professional guitarists. Check out the tab »
×

Numb bass

9,419 views 1 this week
no commentswrite comment
1 2 3 4 5
2 more votes to show rating
add to favorites
×
Save as Personal and add changes to this tab that will be seen only by you. Learn more ›
×
You can save this tab as Personal to edit and correct it or add notes. All changes will be seen only by you. Learn more »
launch autoscroll
font size
0
reset
guitar tuner
backing track
0:00
0:00
edit
Autoscroll
slow
fast
+/-
esc
set tempo
stop
Author
Hey I was looking around and saw quite a lot of tabs for this song in C# and me being me (Lazy)
decided to tab it for a 5 string to save me from down tuning every time 
i want to play it! Enjoy, I'm pretty sure its 100% right!

Song:Numb
 Artist:Linkin Park
 Tabbed by Adam Collins

 G |---------------------------------------|
 D |---------------------------------------|
 A |---------------------------------------|
 E |-------------------55555555------------|
 B |-77777777-33333333----------5555/6/7/8-|
 Verse
 G |-------------------------------|-------------------------------|
 D |-------------------------------|-------------------------------|
 A |--------------------0----------|--------------------0----------|
 E |-----------------------------0-|-----------------------------0-|
 B |-7--------3--------------------|-7--------3--------------------|
 1st Pre Chorus
 G |------------------------------------------------|
 D |------------------------------------------------|
 A |------------------------------------------------|
 C#|------------------------------------------------|
 B |-3------7-5------9-7-----9-10---2----3------7-5-|
 Chorus 
 G |---------------------------------------|
 D |---------------------------------------|
 A |---------------------------------------|
 C#|-------------------55555555------------|
 B |-77777777-33333333----------5555/6/7/8-|

 G |---------------------------------------|
 D |---------------------------------------|
 A |---------------------------------------|
 C#|-------------------55555555------------|
 B |-77777777-33333333----------5555/6/7/8-|

 Verse
 G |-------------------------------|-------------------------------|
 D |-------------------------------|-------------------------------|
 A |--------------------0----------|--------------------0----------|
 E |-----------------------------0-|-----------------------------0-|
 B |-7--------3--------------------|-7--------3--------------------|

G |-----------------------------------|-------------------------------------|
D |-----------------------------------|-------------------------------------|
A |-----------------------------------|-------------------------------------|
E |-----------------------------------|-------------------------------------|
B |-3-------7-5-------9-7----9-10---2-|-3-------7-5-------9-7----9-10----2--|

 Chorus
 G |---------------------------------------|
 D |---------------------------------------|
 A |---------------------------------------|
 E |-------------------55555555------------|
 B |-77777777-33333333----------5555/6/7/8-|

 G |---------------------------------------|
 D |---------------------------------------|
 A |---------------------------------------|
 E |-------------------55555555------------|
 B |-77777777-33333333----------5555/6/7/8-|

 Bridge
 G |------------------------------------------------------|
 D |------------------------------------------------------|
 A |------------------------------------------------------|
 E |------------------------------------------------------|
 B |-3-3-3----3-3-5-5-5----5-5-7-7-7-9-9-9-10-10-10-2-2-2-|

 G |------------------------------------------------------------------|
 D |------------------------------------------------------------------|
 A |------------------------------------------------------------------|
 E |------------------------------------------------------------------|
 B |-3-3-3----3-3-5-5-5----5-5-2-2-2-----3-3-3-3-3----2-2/9-9--7-7--5-|
Chorus x2

 G |---------------------------------------|
 D |---------------------------------------|
 A |---------------------------------------|
 E |-------------------55555555------------|
 B |-77777777-33333333----------5555/6/7/8-|
 
 G |---------------------------------------|
 D |---------------------------------------|
 A |---------------------------------------|
 E |-------------------55555555------------|
 B |-77777777-33333333----------5555/6/7/8-|

 G |---------------------------------------|
 D |---------------------------------------|
 A |---------------------------------------|
 E |-------------------55555555------------|
 B |-77777777-33333333----------5555/6/7/8-|

 G |---------------------------------------|
 D |---------------------------------------|
 A |---------------------------------------|
 E |-------------------55555555------------|
 B |-77777777-33333333----------5555/6/7/8-|

Thanks I hope you got it as easy as I did thanks! Please Rate :)


            
            
Suggest correction
Creating personal tab
Creating personal tab
You can edit any tab online and save it as your Personal.

You can edit, replace or remove any tab part or add personal notes – all changes will be seen only by you.

Personal tabs can be accessed anytime from any device, even offline.
Learn more »
Give kudos to tab author, rate the tab!
1 2 3 4 5
comments
print report bad tab
guest
You may want to rate the tab now too:
select rating
Wanna post a correction for this tab? Suggest correction