Oops, an error
Loading. Please wait.
We have an official Numb tab made by UG professional guitarists. Check out the tab »
×

Numb bass

38,400 views 27 this week
3 commentsread comments
1 2 3 4 5
x 8
add to favorites
×
Save as Personal and add changes to this tab that will be seen only by you. Learn more ›
×
You can save this tab as Personal to edit and correct it or add notes. All changes will be seen only by you. Learn more »
launch autoscroll
font size
0
reset
guitar tuner
backing track
0:00
0:00
edit
Autoscroll
slow
fast
+/-
esc
set tempo
stop
Author
Standard Tuning

[Verse]
G|--------------------------|
D|--------------------------|
A|----------------3---------|   (x3)
E|----5-----1----------3----|

  play that heavy with brads guitar then in the verse with mikes piano,
then for the last time round in the verse play...

[Verse part 2]
G|-----------------------------------|
D|-----------------------------------|
A|------3-----3--1---3--5------3-----|   
E|---3----5-----------------3----5---|

That part may not sound right by itself but with the music it falls into place

[Chorus/Verse]
G|--------------------------|
D|--------------------------|
A|----------------3---------|   (x4)
E|----5-----1----------3----|

[Verse part 2]
G|-------------------------------------------------|
D|-------------------------------------------------|
A|------3-----3--1---3--5------3-----3--1---3--5---|   
E|---3----5-----------------3----5-----------------|

[Chorus]
G|--------------------------|
D|--------------------------|
A|----------------3---------|  (x2)
E|----5-----1----------3----|

[Bridge]
G|-------------------------------------|
D|-------------------------------------|
A|-------------------------------------|  
E|--1--3--5--7--8--0--1----3--1--1--1--|

[Chorus]
G|--------------------------|
D|--------------------------|
A|----------------3---------|   (x4)
E|----5-----1----------3----|

            
            
Suggest correction
Creating personal tab
Creating personal tab
You can edit any tab online and save it as your Personal.

You can edit, replace or remove any tab part or add personal notes – all changes will be seen only by you.

Personal tabs can be accessed anytime from any device, even offline.
Learn more »
comments
print report bad tab
3 comments total.
0 reply
Bassist15 101 Jul 14, 2004 08:00 PM

badddd very badd

0 reply
unbitter_89 10 Dec 11, 2005 01:51 PM

wrong notes, wrong tuning

0 reply
DunkDatBucket 10 Jun 03, 2016 05:42 AM

I just don't like it - no special reason

guest
You may want to rate the tab now too:
select rating
Wanna post a correction for this tab? Suggest correction