Oops, an error
Loading. Please wait.
We have an official Somewhere I Belong tab made by UG professional guitarists. Check out the tab »
×
574 views 12 this week
2 commentsread comments
1 2 3 4 5
x 7
add to favorites
×
Save as Personal and add changes to this tab that will be seen only by you. Learn more ›
×
You can save this tab as Personal to edit and correct it or add notes. All changes will be seen only by you. Learn more »
launch autoscroll
font size
0
reset
guitar tuner
backing track
0:00
0:00
edit
Autoscroll
slow
fast
+/-
esc
set tempo
stop
Title: Somewhere I Belong
Artist: Linkin Park
Album: Meteora
Tuning: 5 String Standard - 1/2 step down (A# D# G# C# F#)
Tab Author: Pearce Hamblin (The Bass Diaries)

Intro
F#|--------|--------|--------|--------|--------|--------|--------|--------|------------------------------|
C#|--------|--------|--------|--------|--------|--------|--------|--------|------------------------------|
G#|--------|--------|--------|--------|--------|--------|--------|--------|------------------------------|
D#|--------|--------|--------|--------|--------|--------|--------|--------|-7----7---7---7---7---7---7---|
A#|--------|--------|--------|--------|--------|--------|--------|--------|------------------------------|


F#|------------------------------|------------------------------|------------------------------|
C#|------------------------------|------------------------------|------------------------------|
G#|------------------------------|------------------------------|------------------------------|
D#|-3----3---3---3---3---3---3---|-5----5---5---5---5---5---5---|------------------------------|
A#|------------------------------|------------------------------|-5----5---5---5---5---5---5---|


F#|------------------------------|------------------------------|------------------------------|
C#|------------------------------|------------------------------|------------------------------|
G#|------------------------------|------------------------------|------------------------------|
D#|-7----7---7---7---7---7---7---|-3----3---3---3---3---3---3---|-5----5---5---5---5---5---5---|
A#|------------------------------|------------------------------|------------------------------|


F#|--------|------------------------------|---------------------|------------------------------|
C#|--------|------------------------------|---------------------|------------------------------|
G#|--------|------------------------------|---------------------|------------------------------|
D#|--------|------------------------------|---------------------|-3----3---3---3---3---3---3---|
A#|--------|-0----0---0---0---0---0---0---|-3----3----3----3----|------------------------------|


F#|------------------------|------------------------------|---------------------|------------------------------|
C#|------------------------|------------------------------|---------------------|------------------------------|
G#|------------------------|------------------------------|---------------------|------------------------------|
D#|----------------5---7---|------------------------------|---------------------|-5----5---5---5---5---5---5---|
A#|-5----5----5------------|-0----0---0---0---0---0---0---|-3----3----3----3----|------------------------------|

                                                            Verse 1
F#|---------------------|--------|--------|--------|--------|------------------------------|
C#|---------------------|--------|--------|--------|--------|------------------------------|
G#|---------------------|--------|--------|--------|--------|------------------------------|
D#|---------------------|--------|--------|--------|--------|-7----7---7---7---7---7---7---|
A#|-5----5----5----5----|--------|--------|--------|--------|------------------------------|


F#|------------------------------|------------------------------|------------------------------|
C#|------------------------------|------------------------------|------------------------------|
G#|------------------------------|------------------------------|------------------------------|
D#|-3----3---3---3---3---3---3---|-5----5---5---5---5---5---5---|------------------------------|
A#|------------------------------|------------------------------|-5----5---5---5---5---5---5---|


F#|------------------------------|------------------------------|------------------------------|
C#|------------------------------|------------------------------|------------------------------|
G#|------------------------------|------------------------------|------------------------------|
D#|-7----7---7---7---7---7---7---|-3----3---3---3---3---3---3---|-5----5---5---5---5---5---5---|
A#|------------------------------|------------------------------|------------------------------|


F#|------------------------------|------------------------------|------------------------------|
C#|------------------------------|------------------------------|------------------------------|
G#|------------------------------|------------------------------|------------------------------|
D#|------------------------------|-7----7---7---7---7---7---7---|-3----3---3---3---3---3---3---|
A#|-5----5---5---5---5---5---5---|------------------------------|------------------------------|


F#|------------------------------|------------------------------|------------------------------|
C#|------------------------------|------------------------------|------------------------------|
G#|------------------------------|------------------------------|------------------------------|
D#|-5----5---5---5---5---5---5---|------------------------------|-7----7---7---7---7---7---7---|
A#|------------------------------|-5----5---5---5---5---5---5---|------------------------------|


F#|------------------------------|------------------------------|---------------------------------|
C#|------------------------------|------------------------------|---------------------------------|
G#|------------------------------|------------------------------|---------------------------------|
D#|-3----3---3---3---3---3---3---|-5----5---5---5---5---5---5---|---------------------------------|
A#|------------------------------|------------------------------|-3---5---5---5---5---5---3---5---|

Chorus 1
F#|------------------------------|---------------------|------------------------------|
C#|------------------------------|---------------------|------------------------------|
G#|------------------------------|---------------------|------------------------------|
D#|------------------------------|---------------------|-3----3---3---3---3---3---3---|
A#|-0----0---0---0---0---0---0---|-3----3----3----3----|------------------------------|


F#|------------------------|------------------------------|---------------------|------------------------------|
C#|------------------------|------------------------------|---------------------|------------------------------|
G#|------------------------|------------------------------|---------------------|------------------------------|
D#|----------------5---7---|------------------------------|---------------------|-3----3---3---3---3---3---3---|
A#|-5----5----5------------|-0----0---0---0---0---0---0---|-3----3----3----3----|------------------------------|


F#|------------------------|------------------------------|---------------------|------------------------------|
C#|------------------------|------------------------------|---------------------|------------------------------|
G#|------------------------|------------------------------|---------------------|------------------------------|
D#|----------------5---7---|------------------------------|---------------------|-3----3---3---3---3---3---3---|
A#|-5----5----5------------|-0----0---0---0---0---0---0---|-3----3----3----3----|------------------------------|


F#|------------------------|------------------------------|---------------------|------------------------------|
C#|------------------------|------------------------------|---------------------|------------------------------|
G#|------------------------|------------------------------|---------------------|------------------------------|
D#|----------------5---7---|------------------------------|---------------------|-5----5---5---5---5---5---5---|
A#|-5----5----5------------|-0----0---0---0---0---0---0---|-3----3----3----3----|------------------------------|

                        Verse 2
F#|---------------------|------------------------------|------------------------------|
C#|---------------------|------------------------------|------------------------------|
G#|---------------------|------------------------------|------------------------------|
D#|---------------------|-7----7---7---7---7---7---7---|-3----3---3---3---3---3---3---|
A#|-5----5----5----5----|------------------------------|------------------------------|


F#|------------------------------|------------------------------|------------------------------|
C#|------------------------------|------------------------------|------------------------------|
G#|------------------------------|------------------------------|------------------------------|
D#|-5----5---5---5---5---5---5---|------------------------------|-7----7---7---7---7---7---7---|
A#|------------------------------|-5----5---5---5---5---5---5---|------------------------------|


F#|------------------------------|------------------------------|------------------------------|
C#|------------------------------|------------------------------|------------------------------|
G#|------------------------------|------------------------------|------------------------------|
D#|-3----3---3---3---3---3---3---|-5----5---5---5---5---5---5---|------------------------------|
A#|------------------------------|------------------------------|-5----5---5---5---5---5---5---|


F#|------------------------------|------------------------------|------------------------------|
C#|------------------------------|------------------------------|------------------------------|
G#|------------------------------|------------------------------|------------------------------|
D#|-7----7---7---7---7---7---7---|-3----3---3---3---3---3---3---|-5----5---5---5---5---5---5---|
A#|------------------------------|------------------------------|------------------------------|


F#|------------------------------|------------------------------|------------------------------|
C#|------------------------------|------------------------------|------------------------------|
G#|------------------------------|------------------------------|------------------------------|
D#|------------------------------|-7----7---7---7---7---7---7---|-3----3---3---3---3---3---3---|
A#|-5----5---5---5---5---5---5---|------------------------------|------------------------------|

                                                       Chorus 2
F#|------------------------------|---------------------|------------------------------|
C#|------------------------------|---------------------|------------------------------|
G#|------------------------------|---------------------|------------------------------|
D#|-5----5---5---5---5---5---5---|---------------------|------------------------------|
A#|------------------------------|-5----3////8\\\\3----|-0----0---0---0---0---0---0---|


F#|---------------------|------------------------------|------------------------|------------------------------|
C#|---------------------|------------------------------|------------------------|------------------------------|
G#|---------------------|------------------------------|------------------------|------------------------------|
D#|---------------------|-3----3---3---3---3---3---3---|----------------5---7---|------------------------------|
A#|-3----3----3----3----|------------------------------|-5----5----5------------|-0----0---0---0---0---0---0---|


F#|---------------------|------------------------------|------------------------|------------------------------|
C#|---------------------|------------------------------|------------------------|------------------------------|
G#|---------------------|------------------------------|------------------------|------------------------------|
D#|---------------------|-3----3---3---3---3---3---3---|----------------5---7---|------------------------------|
A#|-3----3----3----3----|------------------------------|-5----5----5------------|-0----0---0---0---0---0---0---|


F#|---------------------|------------------------------|------------------------|------------------------------|
C#|---------------------|------------------------------|------------------------|------------------------------|
G#|---------------------|------------------------------|------------------------|------------------------------|
D#|---------------------|-3----3---3---3---3---3---3---|----------------5---7---|------------------------------|
A#|-3----3----3----3----|------------------------------|-5----5----5------------|-0----0---0---0---0---0---0---|

                                                                             Bridge
F#|---------------------|------------------------------|---------------------|---------------------|
C#|---------------------|------------------------------|---------------------|---------------------|
G#|---------------------|------------------------------|---------------------|---------------------|
D#|---------------------|-5----5---5---5---5---5---5---|---------------------|---------------------|
A#|-3----3----3----3----|------------------------------|-5----5----5----5----|-0----0--------------|


F#|---------------------|---------------------|---------------------|---------------------|
C#|---------------------|---------------------|---------------------|---------------------|
G#|---------------------|---------------------|---------------------|---------------------|
D#|-3----3--------------|-5----5--------------|---------------------|---------------------|
A#|---------------------|---------------------|-5----5--------------|-0----0--------------|


F#|---------------------|---------------------|---------------------|---------------------|
C#|---------------------|---------------------|---------------------|---------------------|
G#|---------------------|---------------------|---------------------|---------------------|
D#|-3----3--------------|-5----5--------------|---------------------|---------------------|
A#|---------------------|---------------------|-5----5\\\\\\\\\\\\\\|-0----0--------------|


F#|---------------------|---------------------|------------------------|---------------------|
C#|---------------------|---------------------|------------------------|---------------------|
G#|---------------------|---------------------|------------------------|---------------------|
D#|-3----3--------------|-5----5--------------|------------------------|---------------------|
A#|---------------------|---------------------|-5----5----3---5---3----|-0----0--------------|


F#|---------------------|---------------------|---------------------|--------|--------|
C#|---------------------|---------------------|---------------------|--------|--------|
G#|---------------------|---------------------|---------------------|--------|--------|
D#|-3----3--------------|/5----5----5----5----|---------------------|-7------|--------|
A#|---------------------|---------------------|-5----5----5\\\\\\\\\|--------|--------|

                                 Chorus 3
F#|--------|---------------------|------------------------------|---------------------|
C#|--------|---------------------|------------------------------|---------------------|
G#|--------|---------------------|------------------------------|---------------------|
D#|--------|---------------------|------------------------------|---------------------|
A#|--------|------3////8\\\\3----|-0----0---0---0---0---0---0---|-3----3----3----3----|


F#|------------------------------|------------------------|------------------------------|
C#|------------------------------|------------------------|------------------------------|
G#|------------------------------|------------------------|------------------------------|
D#|-3----3---3---3---3---3---3---|----------------5---7---|------------------------------|
A#|------------------------------|-5----5----5------------|-0----0---0---0---0---0---0---|


F#|---------------------|------------------------------|------------------------|------------------------------|
C#|---------------------|------------------------------|------------------------|------------------------------|
G#|---------------------|------------------------------|------------------------|------------------------------|
D#|---------------------|-3----3---3---3---3---3---3---|----------------5---7---|------------------------------|
A#|-3----3----3----3----|------------------------------|-5----5----5------------|-0----0---0---0---0---0---0---|


F#|---------------------|------------------------------|------------------------|------------------------------|
C#|---------------------|------------------------------|------------------------|------------------------------|
G#|---------------------|------------------------------|------------------------|------------------------------|
D#|---------------------|-3----3---3---3---3---3---3---|----------------5---7---|------------------------------|
A#|-3----3----3----3----|------------------------------|-5----5----5------------|-0----0---0---0---0---0---0---|


F#|---------------------|---------------------------|-----------------------|--------------------|
C#|---------------------|---------------------------|-----------------------|--------------------|
G#|---------------------|---------------------------|-----------------------|--------------------|
D#|---------------------|-3----3---3---3---3---3////|/12--14--12----10--12--|-14---14--14--14----|
A#|-3----3----3----3----|---------------------------|-----------------------|--------------------|


F#|------------------------|------------------------------|------------------------|
C#|------------------------|------------------------------|------------------------|
G#|------------------------|------------------------------|------------------------|
D#|-10---10--10---10--10---|-3----3---3---3---3---3---3---|----------------5---7---|
A#|------------------------|------------------------------|-5----5----5------------|


F#|------------------------------|---------------------|------------------------------|
C#|------------------------------|---------------------|------------------------------|
G#|------------------------------|---------------------|------------------------------|
D#|------------------------------|---------------------|-5----5---5---5---5---5---5---|
A#|-0----0---0---0---0---0---0---|-3----3----3----3----|------------------------------|

                        Outro
F#|---------------------|--------------------|---------------------------------|--------------------|
C#|---------------------|--------------------|---------------------------------|--------------------|
G#|---------------------|--------------------|---------------------------------|--------------------|
D#|---------------------|--------------------|---------------------------------|--------------------|
A#|-5----5----5----5----|-0-----0----0---0---|-----0---0-----------------------|-0-----0----0---0---|


F#|---------------------------------|--------------------|---------------------------------|
C#|---------------------------------|--------------------|---------------------------------|
G#|---------------------------------|--------------------|---------------------------------|
D#|---------------------------------|--------------------|---------------------------------|
A#|-----0---0-----------------------|-0-----0----0---0---|-----0---0-----------------------|


F#|--------------------|---------------------------------|
C#|--------------------|---------------------------------|
G#|--------------------|---------------------------------|
D#|--------------------|---------------------------------|
A#|-0-----0----0---0---|-----0---0-----------------------|



            
            
Suggest correction
Creating personal tab
Creating personal tab
You can edit any tab online and save it as your Personal.

You can edit, replace or remove any tab part or add personal notes – all changes will be seen only by you.

Personal tabs can be accessed anytime from any device, even offline.
Learn more »
comments
print report bad tab
2 comments total.
0 reply
790FX 736 Jul 29, 2016 02:43 AM

Good tab. With the original low A#. :)

0 reply
xKrystalBassx 10 Nov 14, 2016 01:22 AM

Nice this tab looks great

guest
You may want to rate the tab now too:
select rating
Wanna post a correction for this tab? Suggest correction