Oops, an error
Loading. Please wait.
We have an official Somewhere I Belong tab made by UG professional guitarists. Check out the tab »
×
2,779 views 1 this week
1 commentread comment
1 2 3 4 5
x 5
add to favorites
guitar tuner
Autoscroll
slow
fast
+/-
esc
set tempo
stop
"Somewhere I Belong"
demo version
Play now

or get full version for Free

×
Get full version now!
Learn and play this song
in Tab Pro
Try for free

or get $10 off Welcome Bonus

Get welcome bonus
Get access to Tab Pro version of “Somewhere I Belong”!
Tab Pro is a premium guitar tab service, available on PC, Mac, iOS and Android
TRY FOR FREE
To download “Somewhere I Belong” Power tab click button below
Please note that you must have Power Tab software installed on your
computer in order to view this file.
Suggest correction
comments
report bad tab
1 comment total.
0 reply
Bob_Smith 348 Jan 01, 2008 01:43 AM

everything is wrong about the tab. firstly, it's not in the usual Db Linkin Park tuning, it's simply half a step down
(Eb Ab Db Gb Bb eb). this is obvious at the end of the song where the harmonics are
played:
eb|-----
Bb|-----
-----
Gb|-----
Db|-4-4-4-4-4-4-4-4-----4

-4-4-4-4-4-4-4-----
Ab|-2-2-2-2-2-2-2-2-----2
-2-2-2-2-2-2-2-----
Eb|-2-2-2-2-2-2-2-2--(7)-
(7)-(7
)-(7)--2-2-2-2-2-2-2-2---
-- etc

Second, the synths at the start is an acoustic guitar with backwards loop effect;
the tab for which
is:
eb|-----
Bb|-3-3-3-3-----
Gb|-4-4-4-4---4-4-4-4---6
-6-6
-6---0---0--
Db|-4-4-4-4---5-5-5-5---7
-7-7-7---0h2-2--
Ab|-2-2-2-2---5-5-5-5---7
-7-7-7---0h2-2--
Eb|-----3-3-3-
3---5-5-5-5---0---0--

The other synth played through the intro/verses
is:
eb|-----
Bb|-----10-----10-----10-
----1
0----
Gb|---11-----11----11----
-11----11-----11----11---
--11-
Db|-9----9-----9----9----
-9----9-----9----9
-----
Ab|-----
Eb|-----
-----

The first guitar in the chorus (which is technically the second)
is:
eb|-----
Bb|-----
Gb|-----
-----
Db|-4-4-4-4-4-7-7-7-7-7-1
2-12-12-12-12-9-9-9-9-9--
-
Ab|-2-2-2-2-2-5-5-5-5-5
-10-10-10-10-10-7-7-7-7-7
---
Eb|-2-2-2-2-2-5-5-5-5-5-1
0-10-10-10-10-7-7-7-7-7--
-
x3

eb|-----
Bb|-----
Gb|-----
-----
Db|-4-4-4-4-4-7-7-7-7-7-7
-7-7-7-7-2-2-2-2-2--
Ab|-2-2-2-2-2-5-5-5-5-5-7
-7-7-7-7-2-2-2-2-2--

Eb|-2-2-2-2-2-5-5-5-5-5-5
-5-5-5-5-0-0-0-0-0--

No complaints about the other guitar in the chorus

And just when
you thought it was over... the bridge:
everything is wrong about the tab. firstly, it's not in the usual Db Linkin Park
tuning, it's simply half a step down. this is obvious at the end of the song where the harmonics are
played:
eb|-----
Bb|-----
-----
Gb|-----
Db|-4-4-4-4-4-4-4-4-----4

-4-4-4-4-4-4-4-----
Ab|-2-2-2-2-2-2-2-2-----2
-2-2-2-2-2-2-2-----
Eb|-2-2-2-2-2-2-2-2--(7)-
(7)-(7
)-(7)--2-2-2-2-2-2-2-2---
-- etc

Second, the synths at the start is an acoustic guitar with backwards loop effect;
the tab for which
is:
eb|-----
Bb|-3-3-3-3-----
Gb|-4-4-4-4---4-4-4-4---6
-6-6
-6---0---0--
Db|-4-4-4-4---5-5-5-5---7
-7-7-7---0h2-2--
Ab|-2-2-2-2---5-5-5-5---7
-7-7-7---0h2-2--
Eb|-----3-3-3-
3---5-5-5-5---0---0--

The other synth played through the intro/verses
is:
eb|-----
Bb|-----10-----10-----10-
----1
0----
Gb|---11-----11----11----
-11----11-----11----11---
--11-
Db|-9----9-----9----9----
-9----9-----9----9
-----
Ab|-----
Eb|-----
-----
this might not sound right at first but if you hear the live in texas version you'll see what i
mean

The first guitar in the chorus (which is technically the second)
is:
eb|-----
Bb|-----
Gb|-----
-----
Db|-4-4-4-4-4-7-7-7-7-7-1
2-12-12-12-12-9-9-9-9-9--
-
Ab|-2-2-2-2-2-5-5-5-5-5
-10-10-10-10-10-7-7-7-7-7
---
Eb|-2-2-2-2-2-5-5-5-5-5-1
0-10-10-10-10-7-7-7-7-7--
-
x3

eb|-----
Bb|-----

Gb|-----11-11-----11-11--
---11-11-----6/7\6---
Db|-4-4--x--x----5-5--x--
x----7-7--x--x----2-2--x-
x-x---
Ab
|-2-2--9--9----5-5--9--9-
---7-7--9--9----2-2--4/5\4---
Eb|-2-2-----3-3-----5-5--
---0-0-----

guest