Oops, an error
Loading. Please wait.

Step Up bass

version 2
version 2

Whole song

Interactive

688 views 1 this week
no commentswrite comment
1 2 3 4 5
2 more votes to show rating
add to favorites
×
Save as Personal and add changes to this tab that will be seen only by you. Learn more ›
×
You can save this tab as Personal to edit and correct it or add notes. All changes will be seen only by you. Learn more »
launch autoscroll
font size
0
reset
guitar tuner
edit
Autoscroll
slow
fast
+/-
esc
set tempo
stop
Author
Difficulty
-------------------------------------------------------------------------------
			     Step Up - Linkin Park
-------------------------------------------------------------------------------

Song name : Step Up
Band/artist : Linkin Park
Tab : Bass Tab
Tabbed By : bassbuzz
Tuning : Standard

Please be nice, it's my first tab and I'm new to the bassguitar.
I've set the difficulty to novice because I only play for 1 week now 
and even I can do it, but maybe for other beginners it can be slight hard, 
so sorry to you guys.
Anyway, enjoy!


I heard that some of you are getting help with your rhymes.
G:-------------------------|-------------------------|
D:-------------------------|-------------------------|
A:-------------------------|-------------------------|
E:-11\4--4-4---4-4-2--5--4-|--4--4------------5--4---|

G:-------------------------|-------------------------|
D:-------------------------|-------------------------|
A:-------------------------|-------------------------|
E:--4--4-----4-4-2--5--4---|--4--4-------------------|


Chorus: Who can rock a rhyme like this?
G:-------------------------|-------------------------|
D:-------------------------|-------------------------|
A:--------7-7p6--4-4-------|--------7-7p6------------|
E:--4-4---------------2-2--|--4-4----------5-5--7-7--|


And your record company is completely missing it.
G:-------------------------|-------------------------|
D:-------------------------|-------------------------|
A:-------------------------|-------------------------|
E:--4--4-----4-4-2--5--4---|--4--4-----4-4-2--5--4---|

G:-------------------------|-------------------------|
D:-------------------------|-------------------------|
A:-------------------------|-------------------------|
E:--4--4-----4-4-2--5--4---|--4--4-----4-4-2--5--4---|


Using the waves of sound, the true master paralyzes his opponents...
G:-------------------------|-------------------------|
D:-------------------------|-------------------------|
A:-------------------------|-------------------------|
E:-4-4--4-4-4--4-5-5-5/7-7-|-4-4--4-4-4--2-5-5-5/7-7-|


Chorus: Who can rock a rhyme like this?
G:-------------------------|-------------------------|x2|
D:-------------------------|-------------------------|x2|
A:--------7-7p6--4-4-------|--------7-7p6------------|x2|
E:--4-4---------------2-2--|--4-4----------5-5--7-7--|x2|


bridge:
G:-----------R-------------|-------------------------|
D:-----------E-------------|-------------------------|
A:-----------S-------------|-------------------------|
E:-----------T-------------|-------------------------|


Chester vocals:
G:-------------------------|-------------------------|
D:-------------------------|-------------------------|
A:-------------------------|-------------------------|
E:---4~--4-4~---5~--5-5~---|---4~--4-4~--4-5~--5-5~--|

G:-------------------------|-------------------------|
D:-------------------------|-------------------------|
A:-------------------------|-------------------------|
E:---4~--4-4~-4-5~--5-5~---|---4~--4-4~---2-2-2------|


After years of pain staking research by the world's leading sound scientists.
G:-------------------------|-------------------------|
D:-------------------------|-------------------------|
A:-------------------------|-------------------------|
E:-4-4-4-4-4-4p2--5-5-5/7-7|-4-4-4-4-4-4p2--5-5-5/7-7|

G:-------------------------|-------------------------|
D:-------------------------|-------------------------|
A:-------------------------|-------------------------|
E:-4-4-4-4-4-4p2--5-5-5/7-7|-4-4-4-4-4-4p2--5-5-7----|


Chorus: Who can rock a rhyme like this?
G:-------------------------|-------------------------|x2|
D:-------------------------|-------------------------|x2|
A:--------7-7p6--4-4-------|--------7-7p6------------|x2|
E:--4-4---------------2-2--|--4-4----------5-5--7-7--|x2|


outro:
G:-----N----------B--------|-------------------------|
D:-----O----------A--------|-------------------------|
A:----------------S--------|-------------------------|
E:----------------S--------|-------------------------|


| /  slide up
| \  slide down
| h  hammer-on
| p  pull-off
| ~  let ring
| +  harmonic
| x  Mute note
===============================================================================

            
            
Suggest correction
Creating personal tab
Creating personal tab
You can edit any tab online and save it as your Personal.

You can edit, replace or remove any tab part or add personal notes – all changes will be seen only by you.

Personal tabs can be accessed anytime from any device, even offline.
Learn more »
Give kudos to tab author, rate the tab!
1 2 3 4 5
comments
print report bad tab
guest
You may want to rate the tab now too:
select rating
Wanna post a correction for this tab? Suggest correction