Oops, an error
Loading. Please wait.

Talking To Myself tab

7,660 views 222 this week
11 commentsread comments
1 2 3 4 5
x 3
add to favorites
×
Save as Personal and add changes to this tab that will be seen only by you. Learn more ›
×
You can save this tab as Personal to edit and correct it or add notes. All changes will be seen only by you. Learn more »
launch autoscroll
font size
0
reset
how to read this tab
guitar tuner
edit
Autoscroll
slow
fast
+/-
esc
set tempo
stop
Rest in peace Chester Bennington! This is for you!
I recommend light distortion and light reverb. Simple, but fun. Enjoy!

[Intro]
e|---------------------------------------------------------------------------|
B|---(feedback)--10-10-6-6-----7/13-13-13-13-11-11-11-11---------------------|
G|-------------------------7-7-----------------------------------------------| [x3]
D|---------------------------------------------------------------------------|
A|---------------------------------------------------------------------------|
E|---------------------------------------------------------------------------|
  
e|---------------------------------------------------------------------------|
B|--10-10-6-6-----7/8b(play note 4 times while bending up)-------------------|
G|------------7-7------------------------------------------------------------|
D|---------------------------------------------------------------------------|
A|---------------------------------------------------------------------------|
E|---------------------------------------------------------------------------|

[Verse]
e|---------------------------------------------------------------------------|
B|---------------------------------------------------------------------------|
G|---------------------------------------------------------------------------|
D|---------------------------------------------------------------------------|
A|---------------------------------------------------------------------------|
E|---------------------------------------------------------------------------|

[Chorus]
e|---------------------------------------------------------------------------|
B|---10-10-6-6-----7/13-13-13-13-11-11-11-11---------------------------------| [x3]
G|-------------7-7-----------------------------------------------------------|
D|---------------------------------------------------------------------------|
A|---------------------------------------------------------------------------|
E|---------------------------------------------------------------------------|

e|---------------------------------------------------------------------------|
B|---10-10-6-6-----7/8b------------------------------------------------------|
G|-------------7-7-----------------------------------------------------------|
D|---------------------------------------------------------------------------|
A|---------------------------------------------------------------------------|
E|---------------------------------------------------------------------------|

[Bridge]
e|---------------------------------------------------------------------------|
B|---------------------------------------------------------------------------|
G|---------------------------------------------------------------------------|
D|---------------------------------------------------------------------------|
A|---------------------------------------------------------------------------|
E|---------------------------------------------------------------------------|

[Chorus]
e|---------------------------------------------------------------------------|
B|---10-10-6-6-----7/13-13-13-13-11-11-11-11---------------------------------| [x3]
G|-------------7-7-----------------------------------------------------------|
D|---------------------------------------------------------------------------|
A|---------------------------------------------------------------------------|
E|---------------------------------------------------------------------------|

e|---------------------------------------------------------------------------|
B|---10-10-6-6-----7/8b------------------------------------------------------|
G|-------------7-7-----------------------------------------------------------|
D|---------------------------------------------------------------------------|
A|---------------------------------------------------------------------------|
E|---------------------------------------------------------------------------|
 

************************************

| /  Slide up
| b  Bend
 

************************************

            
            
Suggest correction
Creating personal tab
Creating personal tab
You can edit any tab online and save it as your Personal.

You can edit, replace or remove any tab part or add personal notes – all changes will be seen only by you.

Personal tabs can be accessed anytime from any device, even offline.
Learn more »
Give kudos to tab author, rate the tab!
1 2 3 4 5
comments
print report bad tab
11 comments total. Showing first comments.
0 reply
ghostbustersbg 109 Jul 24, 2017 08:26 PM

Hope y'all enjoy the tab!

+5 reply
shivaansingh92 10 Jul 25, 2017 05:17 AM

might be a stupid question but if every note is above 6, why do i need a capo?

0 reply
ghostbustersbg 109 Jul 25, 2017 07:43 AM

The reason the capo is on the fifth fret is because that is how Linkin Park's guitarist, Brad, plays it.

guest
You may want to rate the tab now too:
select rating
Wanna post a correction for this tab? Suggest correction