Oops, an error
Loading. Please wait.
We have an official What Ive Done tab made by UG professional guitarists. Check out the tab »
×

What Ive Done tab

version 9
version 9

Whole song

Video

9,199 views 1 this week
2 commentsread comments
1 2 3 4 5
2 more votes to show rating
add to favorites
×
Save as Personal and add changes to this tab that will be seen only by you. Learn more ›
×
You can save this tab as Personal to edit and correct it or add notes. All changes will be seen only by you. Learn more »
launch autoscroll
font size
0
reset
how to read this tab
guitar tuner
backing track
0:00
0:00
edit
Autoscroll
slow
fast
+/-
esc
set tempo
stop
What I've Done

E  :----------------|----------------|----------------|----------------|
B  :--3---3-4-3---3-|--3---3-4-3---3-|--3---3-4-3---3-|--3---3-4-3---3-|
G  :0---0-------0---|0---0-------0---|0---0-------0---|0---0-------0---|
D  :----------------|----------------|----------------|----------------|
A  :----------------|----------------|----------------|----------------|
E  :----------------|----------------|----------------|----------------|

E  :----------------|----------------|----------------|3-3-3-3-3-3-3-3-|
B  :3-3-3-3-3-3-3-3-|6-6-6-6-6-6-6-6-|----------------|1-1-1-1-1-1-1-1-|
G  :0-0-0-0-0-0-0-0-|3-3-3-3-3-3-3-3-|5-5-5-5-5-5-5-5-|----------------|
D  :5---------------|----------------|3-3-3-3-3-3-3-3-|----------------|
A  :----------------|----------------|----------------|----------------|
E  :----------------|----------------|----------------|----------------|

E  :----------------|----------------|----------------|3-3-3-3-3-3-3-3-|
B  :3-3-3-3-3-3-3-3-|6-6-6-6-6-6-6-6-|----------------|1-1-1-1-1-1-1-1-|
G  :0-0-0-0-0-0-0-0-|3-3-3-3-3-3-3-3-|5-5-5-5-5-5-5-5-|----------------|
D  :----------------|----------------|3-3-3-3-3-3-3-3-|----------------|
A  :----------------|----------------|----------------|----------------|
E  :----------------|----------------|----------------|----------------|

E  :----------------|----------------|----------------|----------------|
B  :3---------------|----------------|--3---3-4-3---3-|--3---3-4-3---3-|
G  :0---------------|----------------|0---0-------0---|0---0-------0---|
D  :----------------|----------------|----------------|----------------|
A  :----------------|----------------|----------------|----------------|
E  :----------------|----------------|----------------|----------------|

E  :----------------|----------------|----------------|-----------------|
B  :--3---3-4-3---3-|--3---3-4-3---3-|--3---3-4-3---3-|--3---3-4-3---3--|
G  :0---0-------0---|0---0-------0---|0---0-------0---|0---0-------0----|
D  :----------------|----------------|----------------|-----------------|
A  :----------------|----------------|----------------|-----------------|
E  :----------------|----------------|----------------|-----------------|

E  :----------------|----------------|----------------|----------------|
B  :--3---3-4-3---3-|--3---3-4-3---3-|----------------|----------------|
G  :0---0-------0---|0---0-------0---|3---------------|----------------|
D  :----------------|----------------|1---------------|----------------|
A  :----------------|----------------|----------------|----------------|
E  :----------------|----------------|----------------|----------------|

E  :----------------|----------------|----------------|----------------|
B  :----------------|----------------|3-3-3-3-3-3-3-3-|6-6-6-6-6-6-6-6-|
G  :5---------------|----------------|0-0-0-0-0-0-0-0-|3-3-3-3-3-3-3-3-|
D  :3---------------|----------------|----------------|----------------|
A  :----------------|----------------|----------------|----------------|
E  :----------------|----------------|----------------|----------------|

E  :----------------|3-3-3-3-3-3-3-3-|----------------|----------------|
B  :----------------|1-1-1-1-1-1-1-1-|3-3-3-3-3-3-3-3-|6-6-6-6-6-6-6-6-|
G  :5-5-5-5-5-5-5-5-|----------------|0-0-0-0-0-0-0-0-|3-3-3-3-3-3-3-3-|
D  :3-3-3-3-3-3-3-3-|----------------|----------------|----------------|
A  :----------------|----------------|----------------|----------------|
E  :----------------|----------------|----------------|----------------|

E  :----------------|3-3-3-3-3-3-3-3-|----------------|----------------|
B  :----------------|1-1-1-1-1-1-1-1-|--3---3-4-3---3-|--3---3-4-3---3-|
G  :5-5-5-5-5-5-5-5-|----------------|0---0-------0---|0---0-------0---|
D  :3-3-3-3-3-3-3-3-|----------------|----------------|----------------|
A  :----------------|----------------|----------------|----------------|
E  :----------------|----------------|----------------|----------------|

E  :----------------|----------------|----------------|----------------|
B  :--3---3-4-3---3-|--3---3-4-3---3-|--3---3-4-3---3-|--3---3-4-3---3-|
G  :0---0-------0---|0---0-------0---|0---0-------0---|0---0-------0---|
D  :----------------|----------------|----------------|----------------|
A  :----------------|----------------|----------------|----------------|
E  :----------------|----------------|----------------|----------------|

E  :----------------|----------------|----------------|----------------|
B  :--3---3-4-3---3-|--3---3-4-3---3-|----------------|----------------|
G  :0---0-------0---|0---0-------0---|3---------------|----------------|
D  :----------------|----------------|1---------------|----------------|
A  :----------------|----------------|----------------|----------------|
E  :----------------|----------------|----------------|----------------|

E  :----------------|----------------|----------------|----------------|
B  :----------------|----------------|3-3-3-3-3-3-3-3-|6-6-6-6-6-6-6-6-|
G  :5---------------|----------------|0-0-0-0-0-0-0-0-|3-3-3-3-3-3-3-3-|
D  :3---------------|----------------|----------------|----------------|
A  :----------------|----------------|----------------|----------------|
E  :----------------|----------------|----------------|----------------|

E  :----------------|3-3-3-3-3-3-3-3-|----------------|----------------|
B  :----------------|1-1-1-1-1-1-1-1-|3-3-3-3-3-3-3-3-|6-6-6-6-6-6-6-6-|
G  :5-5-5-5-5-5-5-5-|----------------|0-0-0-0-0-0-0-0-|3-3-3-3-3-3-3-3-|
D  :3-3-3-3-3-3-3-3-|----------------|----------------|----------------|
A  :----------------|----------------|----------------|----------------|
E  :----------------|----------------|----------------|----------------|

E  :----------------|----------------|----------------|----------------|
B  :----------------|----------------|----------------|----------------|
G  :5-5-5-5-5-5-5-5-|--------2-2-2-2-|3-3-3-3-5-5-5-5-|------------0---|
D  :3-3-3-3-3-3-3-3-|5-5-5-5-0-0-0-0-|1-1-1-1-3-3-3-3-|3---3---3-------|
A  :----------------|3-3-3-3---------|----------------|----------------|
E  :----------------|----------------|----------------|----------------|

E  :----------------|----------------|----------------|----------------|
B  :----------------|----------------|----------------|----------------|
G  :3---------------|------------0---|2---0-----------|------------0---|
D  :----------0-3---|3---3---3-------|--------3---3---|3---3---3-------|
A  :----------------|----------------|----------------|----------------|
E  :----------------|----------------|----------------|----------------|

E  :----------------|----------------|----------------|----------------|
B  :----------------|----------------|----------------|----------------|
G  :3---------------|------------0---|2---0-----------|3---0---2-------|
D  :----------0-3---|3---3---3-------|--------3---0---|------------3---|
A  :----------------|----------------|----------------|----------------|
E  :----------------|----------------|----------------|----------------|

E  :----------------|----------------|----------------|----------------|
B  :----------------|----------------|----------------|----------------|
G  :3-3-3-3-3-3-2-2-|3-3-3-3-3-3-5-5-|2-2-2-2-2-2-2-2-|----------------|
D  :5-5-5-5-5-5-5-5-|3-3-3-3-3-3-3-3-|3-3-3-3-3-3-3-3-|5-5-5-5-5-5-7-7-|
A  :----------------|----------------|----------------|3-3-3-3-3-3-3-3-|
E  :----------------|----------------|----------------|----------------|

E  :----------------|----------------|----------------|----------------|
B  :----------------|----------------|----------------|----------------|
G  :3-3-3-3-3-3-2-2-|3-3-3-3-3-3-5-5-|2-2-2-2-2-2-2-2-|----------------|
D  :5-5-5-5-5-5-5-5-|3-3-3-3-3-3-3-3-|3-3-3-3-3-3-3-3-|5-5-5-5-5-5-5-5-|
A  :----------------|----------------|----------------|3-3-3-3-3-3-3-3-|
E  :----------------|----------------|----------------|----------------|

E  :----------------|| ----------------|----------------|----------------|
B  :----------------|| 3-3-3-3-3-3-3-3-|6-6-6-6-6-6-6-6-|----------------|
G  :----------------||*0-0-0-0-0-0-0-0-|3-3-3-3-3-3-3-3-|5-5-5-5-5-5-5-5-|
D  :7-7-7-7-7-7-----||*----------------|----------------|3-3-3-3-3-3-3-3-|
A  :3-3-3-3-3-3-----|| ----------------|----------------|----------------|
E  :----------------|| ----------------|----------------|----------------|

E  :3-3-3-3-3-3-3-3- 3|----------------|
B  :1-1-1-1-1-1-1-1- ||3---------------|
G  :----------------*||0---------------|
D  :----------------*||----------------|
A  :---------------- ||----------------|
E  :---------------- ||----------------|

            
            
Suggest correction
Creating personal tab
Creating personal tab
You can edit any tab online and save it as your Personal.

You can edit, replace or remove any tab part or add personal notes – all changes will be seen only by you.

Personal tabs can be accessed anytime from any device, even offline.
Learn more »
Give kudos to tab author, rate the tab!
1 2 3 4 5
comments
print report bad tab
2 comments total.
0 reply
Skorpio917 10 Nov 21, 2009 07:44 AM

its not bad but not that good either. nothings labeled so i didnt know what part was what! the intro bit was too low and thats the only faults i have with this tab otherwise nice shot!

0 reply
Kronus 943 Nov 23, 2009 09:06 AM

A good tab, but notice: The chorus isn't played on the three high strings...if you listen, you can hear notes sounds like powerchords...

guest
Wanna post a correction for this tab? Suggest correction