Oops, an error
Loading. Please wait.

When I Wake Up chords

version 3
version 3

Whole song

  • Tabs for Intro, better chords and easier to play because use of capo.
1,117 views 6 this week
no commentswrite comment
1 2 3 4 5
3 more votes to show rating
add to favorites
×
Save as Personal and add changes to this tab that will be seen only by you. Learn more ›
×
You can save this tab as Personal to edit and correct it or add notes. All changes will be seen only by you. Learn more »
launch autoscroll
font size
0
reset
transpose
0
reset
simplify chords
display chords
guitar tuner
edit
Autoscroll
slow
fast
+/-
esc
set tempo
stop
About this tab version
Tabs for Intro, better chords and easier to play because use of capo. Was this info helpful? Yes No
Strumming
There is no strumming pattern for this song yet. and get +5 IQ
Special Chord-Voicings:

D         xx0232
Asus4/C#  x42230
Bm7       x24232
Gsus2     300233
G         320033


[Intro]

|-------------------------|-------------------------|-------------------------|-------------------------|
|-----------3-------------|-----------3-------------|-----------3-------------|-----------3-------------|
|--------2--------2-------|--------2--------2-------|--------2--------2-------|--------2--------2-------|
|--0-----------------0----|--0-----------------0----|-------------------------|-------------------------|
|-------------------------|-------------------------|--4-----------------4----|--4-----------------4----|
|-------------------------|-------------------------|-------------------------|-------------------------|

|-------------------------|-------------------------|-------------------------|-------------------------|
|-----------3-------------|-----------3-------------|-----------3-------------|-----------3-------------|
|--------2--------2-------|--------2--------2-------|--------2--------2-------|--------2--------2-------|
|-------------------------|-------------------------|-------------------------|-------------------------|
|--2-----------------2----|--2-----------------2----|-------------------------|-------------------------|
|-------------------------|-------------------------|--3-----------------3----|--3-----------------3----|

[Verse 1]

D                               Asus4/C#
  I've seen tricks like this before,
                           Bm7
  I've been shaken to the core
            Gsus2
  And I got over it.

D                           Asus4/C#
  I've been busted by the blues
                                     Bm7
  They said: "You're crazy!" but I knew,
                         Gsus2
  I was crazy 'cause of you.


[Pre-Chorus]

D
  We still go ahead,
Asus4/C#
  Head up to the bed
Bm7                     Gsus2
  And all that's in my head is

D
  When I wake up to yawn
Asus4/C#
  And when I streched my arm
Bm7                     Gsus2
  Did it do the charm


[Chorus]

                                   D   Asus4/C#   Bm7   G
Hope you're still here when I wake up
                               D   Asus4/C#   Bm7   G
I hope you're here when I wake up
                                   D   Asus4/C#   Bm7   G
Hope you're still here when I wake up


[Verse 2]

D                           Asus4/C#
  We fool around and fall apart
                           Bm7
  Yeah we sure perfect the art
             Gsus2
  And we get over it
D                           Asus4/C#
  These busted knees and killer bees
                           Bm7
  They beat the shit right out of me
            Gsus2
  And I got over it


[Pre-Chorus]

D
  We still go ahead,
Asus4/C#
  Head up to the bed
Bm7                     Gsus2
  And all that's in my head is

D
  When I wake up to yawn
Asus4/C#
  And when I streched my arm
Bm7                     Gsus2
  Did it do the charm


[Chorus]

                                   D   Asus4/C#   Bm7   G
Hope you're still here when I wake up
                               D   Asus4/C#   Bm7   G
I hope you're here when I wake up
                               D   Asus4/C#   Bm7   G
I hope you're here when I wake up
                               D   Asus4/C#   Bm7   G
I hope you're here when I wake up


[Bridge]

D   Asus4/C#   Bm7   G

D
Up, up, waking up,
Asus4/C#
Up, up, waking up,
Bm7                 G
Up, up, waking up,


[Chorus]

                                   D   Asus4/C#   Bm7   G
Hope you're still here when I wake up
                               D   Asus4/C#   Bm7   G
I hope you're here when I wake up
                                   D   Asus4/C#   Bm7   G
Hope you're still here when I wake up

            
            
Suggest correction
Creating personal tab
Creating personal tab
You can edit any tab online and save it as your Personal.

You can edit, replace or remove any tab part or add personal notes – all changes will be seen only by you.

Personal tabs can be accessed anytime from any device, even offline.
Learn more »
Give kudos to tab author, rate the tab!
1 2 3 4 5
comments
print report bad tab
guest
You may want to rate the tab now too:
select rating
Wanna post a correction for this tab? Suggest correction