Oops, an error
Loading. Please wait.

Narcotic bass

version 2
version 2

Whole song

  • Quoted times relate to YouTube video "Liquido - Na... Show more

Interactive

by Liquido
5,598 views 3 this week
1 commentread comment
1 2 3 4 5
1 last vote to show rating
add to favorites
×
Save as Personal and add changes to this tab that will be seen only by you. Learn more ›
×
You can save this tab as Personal to edit and correct it or add notes. All changes will be seen only by you. Learn more »
launch autoscroll
font size
0
reset
guitar tuner
backing track
0:00
0:00
edit
Autoscroll
slow
fast
+/-
esc
set tempo
stop
Narotic/Liquido
Intro
G|--------------00|
D|----0---3-------|  2x
A|3-----------3---|
E|----------------|
Chorus
G|--------------00|
D|----00003333----|  2x
A|3333--------33--|
E|----------------|
Vers
G|--------------00|
D|----0---3-------|  3x
A|3-----------3---|
E|----------------|
Vers end
G|----------------|
D|----0-----------|  1x
A|3-------3-5-7---|
E|----------------|
Chorus
G|--------------00|
D|----00003333----|  2x
A|3333--------33--|
E|----------------|
Vers
G|--------------00|
D|----0---3-------|  3x
A|3-----------3---|
E|----------------|
Vers end
G|----------------|
D|----0-----------|  2x
A|3-------3-5-7---|
E|----------------|
Outro
G|--------------00|
D|----00003333----|  2x break 1x break 1x break 1x break 
A|3-----------33--|
E|----------------|

G|--------------00|
D|----00003333----|  4x
A|3333--------33--|
E|----------------|


            
            
Suggest correction
Creating personal tab
Creating personal tab
You can edit any tab online and save it as your Personal.

You can edit, replace or remove any tab part or add personal notes – all changes will be seen only by you.

Personal tabs can be accessed anytime from any device, even offline.
Learn more »
Give kudos to tab author, rate the tab!
1 2 3 4 5
comments
print report bad tab
1 comment total.
0 reply
GrischkaBass 136 Dec 30, 2014 07:04 AM

Everything a fret up and it's ok

guest
Wanna post a correction for this tab? Suggest correction