Oops, an error
Loading. Please wait.

O Sleep bass

61 views 1 this week
no commentswrite comment
1 2 3 4 5
3 more votes to show rating
add to favorites
×
Save as Personal and add changes to this tab that will be seen only by you. Learn more ›
×
You can save this tab as Personal to edit and correct it or add notes. All changes will be seen only by you. Learn more »
launch autoscroll
font size
0
reset
guitar tuner
edit
Autoscroll
slow
fast
+/-
esc
set tempo
stop
Author
Difficulty
About this tab version
Waltz timing. Note the last slide down is correct-- you slide downward, then jump back to a higher note. Was this info helpful? Yes No
O Sleep - Lisa Hannigan feat. Ray LaMontagne
As performed on the Passenger album.
Tabbed by: sushinut (ultimate-guitar.com)

Waltz 3/4

[Intro]
G|--------------------------------------------------------|
D|--[rest]------------------------------------------------|
A|--------------------------------------------------------|
E|--------------------------------------------------------|

[Verse 1]
 O Sleep,                          ....a new start        
G|--------------------------------------------------------|
D|--[rest]------------------------------------------------|
A|--------------------------------------------------------|
E|--------------------------------------------------------|

[Verse 2]
   me     dawn   be     gone   care   grey   day      
G|--------------------------------------------------------|
D|--------------------------------------------------------|
A|-1---/--8------8------8------8---\--5---\--0------------|
E|--------------------------------------------------------|

   dreams chases away          stay      a-  sleep. 
G|--------------------------------------------------------|
D|-----------------------------3-------------3------------|
A|-5---\--0----3-1--------------------3-------------------|
E|--------------------------------------------------------|

G|------------------------------------------|
D|------------------------------------------|
A|-7------8-------------7------8------------|
E|------------------------------------------|

[Verse 3]
 O Sleep  me    come   -ly     leaf   tree  -ober
G|--------------------------------------------------------|
D|--------7-----------------------------------------------|
A|-8-------------8------8---\--4---/--8---\--7------------|
E|--------------------------------------------------------|

 O Sleep  me     wait  -ly     drunk  dream  I'm sober
G|--------------------------------------------------------|
D|--------7-----------------------------------------------|
A|-8-------------8------8---\--4---/--8---\--3------------|
E|--------------------------------------------------------|

[Verse 4]
   now    dawn   can’t  long   me     count  hours
G|--------------------------------------------------------|
D|--------------------------------------------------------|
A|-1---/--8------8------8------8------5---\--0------------|
E|--------------------------------------------------------|

   sleep  feet   feet 
G|--------------------------------------------------------|
D|-----------------------------3-------------3------------|
A|-5------0------1----------------------------------------|
E|--------------------------------------------------------|

[Bridge]
G|--------------------------------------------------------|
D|------------------------------------3------5------------|
A|-5------3------1-------------5--------------------------|
E|--------------------------------------------------------|

G|--------------------------------------------------------|
D|-------------------------------------------5------------|
A|-5------3------1-------------5------3-------------------|
E|--------------------------------------------------------|

[Verse 5]
   now    dawn   can’t  long   me     count  hours
G|--------------------------------------------------------|
D|--------------------------------------------------------|
A|-1---/--8------8------8------8------5------0------------|
E|--------------------------------------------------------|

   sleep  feet myfeet          my         a-  sleep
G|--------------------------------------------------------|
D|--------------------------------------------------------|
A|-5------0----3-1-------------8------7------8------7-----|
E|--------------------------------------------------------|

 a- sleep     a-  sleeeeeeeep             (softly)
G|--------------------------------------------------------|
D|--------------------------------------------------------|
A|-8------7------8------7---\--8-------------8------------|
E|--------------------------------------------------------|

************************************

| /   Slide up
| \   Slide down

************************************

            
            
Suggest correction
Creating personal tab
Creating personal tab
You can edit any tab online and save it as your Personal.

You can edit, replace or remove any tab part or add personal notes – all changes will be seen only by you.

Personal tabs can be accessed anytime from any device, even offline.
Learn more »
Give kudos to tab author, rate the tab!
1 2 3 4 5
comments
print report bad tab
guest
You may want to rate the tab now too:
select rating
Wanna post a correction for this tab? Suggest correction