Oops, an error
Loading. Please wait.
We have an official Still Alive tab made by UG professional guitarists. Check out the tab »
×
688 views 3 this week
no commentswrite comment
1 2 3 4 5
1 last vote to show rating
add to favorites
×
Save as Personal and add changes to this tab that will be seen only by you. Learn more ›
×
You can save this tab as Personal to edit and correct it or add notes. All changes will be seen only by you. Learn more »
launch autoscroll
font size
0
reset
transpose
0
reset
display chords
guitar tuner
edit
Autoscroll
slow
fast
+/-
esc
set tempo
stop
Author
Unregistered
Strumming
There is no strumming pattern for this song yet. and get +5 IQ
Here are my chords for the Mirror's Edge song that I figured out by watching a 
piano cover on YouTube :)
Please feel free to correct me in your comments

Tuning: Standard

No Capo is needed unless you plan on singing it and it doesn't suit your vocal range.

[Intro (Piano Riff)]

A|--------------------------------------------------|
E|-11---11-11--9--6---6----4----9---9-9---2-1---1---|
C|------------------------------------------------3-|
G|--------------------------------------------------|


[Verse]

B
I have changed
B              Ebm
I have changed
               C#
Just like you 
               B
Just like you 

B
For how long 
B             Ebm
For how long 
      
Must I wait
    C# 
I know there's something wrong 

B                                 Ebm
Your concrete heart isn't beating 
                  C#
And I've tried to 
                B
Make it come alive 

B
No shadows
B 
Just red lights
Ebm               C# 
Now I'm here to rescue you oh 


[Chorus]

(Piano Riff w/ chords) 
   Ebm            F#               C#        Bbm
A|--------------------------------------------------|
E|-11---11-11--9--6---6----4----9---9-9---2-1---1---|
C|------------------------------------------------3-|
G|--------------------------------------------------|

B                  F#
Oh I'm still alive
            C# 
I'm still alive 
C#                          
I cannot apologize, no

(Play riff or chords- both if you have two players)

B                  F#
Oh I'm still alive
            C# 
I'm still alive 
C#                          
I cannot apologize, no


[Verse 2]

B
So silent
B
No violence
Ebm              C#
But inside my head
C#            B
So loud and clear 

B
You're screaming
B             Ebm
You're screaming
                  C#                      B
Covered up with a smile I've learned to fear 

B
Just sunshine
B          Ebm
And blue sky
                C#
Is this all we get
C#          B
For living here 

B
Come fire
B
Come fire
Ebm              C#
Let it burn and love come racing through


[Chorus]

(Piano Riff w/ chords) 
   Ebm            F#               C#        Bbm
A|--------------------------------------------------|
E|-11---11-11--9--6---6----4----9---9-9---2-1---1---|
C|------------------------------------------------3-|
G|--------------------------------------------------|

B                  F#
Oh I'm still alive
            C# 
I'm still alive 
C#                          
I cannot apologize, no

(Play riff or chords- both if you have two players)

B                  F#
Oh I'm still alive
            C# 
I'm still alive 
C#                          
I cannot apologize, no


[Bridge]

B                   C#
I've learned to lose
                  Ebm 
I've learned to win
                C#
I've turned my face against the wind 

B                 C#
I will move fast 
                 Ebm
I will move slow
          C# 
Take me where I have to go 

A|--------------------------------------------------|
E|-11---11-11--9--6---6----4----9---9-9---2-1---1---|
C|------------------------------------------------3-|
G|--------------------------------------------------|


[Chorus]

(Piano Riff w/ chords) 
   Ebm            F#               C#        Bbm
A|--------------------------------------------------|
E|-11---11-11--9--6---6----4----9---9-9---2-1---1---|
C|------------------------------------------------3-|
G|--------------------------------------------------|

B                  F#
Oh I'm still alive
            C# 
I'm still alive 
C#                          
I cannot apologize, no

(Play riff or chords- both if you have two players)

B                  F#
Oh I'm still alive
            C# 
I'm still alive 
C#                          
I cannot apologize, no

(song fades out!!!  :D  I hope I helped!!!)

            
            
Suggest correction
Creating personal tab
Creating personal tab
You can edit any tab online and save it as your Personal.

You can edit, replace or remove any tab part or add personal notes – all changes will be seen only by you.

Personal tabs can be accessed anytime from any device, even offline.
Learn more »
Give kudos to tab author, rate the tab!
1 2 3 4 5
comments
print report bad tab
guest
Wanna post a correction for this tab? Suggest correction