Oops, an error
Loading. Please wait.

Neopolitan Dreams tab

version 1
version 1

Whole song

Interactive

37,857 views 81 this week
6 commentsread comments
1 2 3 4 5
x 12
add to favorites
×
Save as Personal and add changes to this tab that will be seen only by you. Learn more ›
×
You can save this tab as Personal to edit and correct it or add notes. All changes will be seen only by you. Learn more »
launch autoscroll
font size
0
reset
how to read this tab
guitar tuner
edit
Autoscroll
slow
fast
+/-
esc
set tempo
stop
Author
Hello. This is a lovely song by a 17 year old Australian girl called Lisa Mitchell, I
she appeared on some sort of Australian Idol or something like that, but to be honest I
think she has to stoop to that level, because she's pretty damn good.


This first wee riff during the verses, is a bit weird as in the video I was watching on
myspace, she varies it too much to actually make out any kind of pattern. I think she's
to be just playing the A and D strings in the C chord and the A and G strings in the E 
Hmpph, complicated description. To be honest I'd just play it like it's tabbed.

        C        E        Am      F (Could be Fmaj7?)
e|---------------------------------------------------------|
B|----------------------1-1-1-1--1-1-1-1-------------------|
G|---0-0-0-0--1-1-1-1---2-2-2-2--2-2-2-2-------------------|
D|---2-2-2-2--2-2-2-2--2-2-2-2--3-3-3-3--------------------|
A|--3-3-3-3--2-2-2-2---------------------------------------|
E|---------------------------------------------------------|

This is the chorus riff.

      C    E    F(Fmaj7)
e|----------------------------------------|
B|--------------1-1-1-1-------------------|
G|---0-0--1-1---2-2-2-2-------------------|
D|---2-2--2-2--3-3-3-3--------------------|
A|--3-3--2-2------------------------------|
E|----------------------------------------|

Lyrics:

(Verse Riff)
You'll go and I'll be okay,
I can dream the rest away.
Its just a little touch of fate, it will be okay.
It sure takes its precious time, but it's got rights and so have I.

I turn my head up to the sky
I focus one thought at a time
I do not let the little thieves under my tightly buttoned sleeves
You couldn't be alone, the time I feel like I am walking blind
I have nowhere, I'll have time

(Chorus Riff)
There are no legible signs x2

(Verse Riff)
I like the way that you talk,
I like the way that you walk.
It's hard to recreate such an individual game

You wait your turn in the queue,
You say your sorry's and thank you's.
I don't think you're ever
A hundred percent in the room

(Chorus Riff)
You're not in the room x2

(Verse Riff)
Deepest, of the dark nights
here lies, the highest of highs
Neopolitan Dreams, stretching out to the sea

You wait your turn in the queue,
You say your sorry's and thank you's
I don't think you're ever
A hundred percent in the room

(Surprise, surprise: Chorus Riff)
You're not in the room x2

End on an F for FIN.

            
            
Suggest correction
Creating personal tab
Creating personal tab
You can edit any tab online and save it as your Personal.

You can edit, replace or remove any tab part or add personal notes – all changes will be seen only by you.

Personal tabs can be accessed anytime from any device, even offline.
Learn more »
comments
print report bad tab
6 comments total. Showing first comments.
+5 reply
GaryJ 41 Dec 07, 2008 11:37 AM

It's good, however the E played is actually an E7 chord. It should be:

G|-----1-1-1-------|
D|-----0-0-0-------|
A|----2-2-2--------|

other than that, it's great :)

0 reply
RossBTA 30 Mar 28, 2009 10:17 AM

Cheers man. xx

0 reply
Paradox711 10 Nov 15, 2009 08:00 AM

Very good, but i also think the Am is really Am7 :

e|---------------------------------------|
B|----1-1-1-1--1-1-1-1-------------------|
G|----0-0-0-0--2-2-2-2-------------------|
D|---2-2-2-2--3-3-3-3--------------------|
A|---------------------------------------|
E|---------------------------------------|

The rest is spot on though, nice one :)

guest
You may want to rate the tab now too:
select rating
Wanna post a correction for this tab? Suggest correction