Oops, an error
Loading. Please wait.
We have an official My Own Worst Enemy tab made by UG professional guitarists. Check out the tab »
×
by Lit
24,783 views 60 this week
2 commentsread comments
1 2 3 4 5
x 18
add to favorites
×
Save as Personal and add changes to this tab that will be seen only by you. Learn more ›
×
You can save this tab as Personal to edit and correct it or add notes. All changes will be seen only by you. Learn more »
launch autoscroll
font size
0
reset
guitar tuner
backing track
0:00
0:00
edit
Autoscroll
slow
fast
+/-
esc
set tempo
stop
Author
Difficulty
Tuning: standard
Time signature: 4/4

******************************

r = rest (listen for duration)
h = hammer on
/ = slide (low to high)
||= measure gets repeated (see number of times above measure, e.g. 4x)

******************************

(My tabs are meant to be read in conjunction with listening to the song.
In other words, there are no specific notations to account for note/rest duration. 
However, you will find that I've made an attempt to strategically space the notes 
and rests within their respective measures in order to represent the appropriate 
durations)


[INTRO]
G|--------------------------------|--------------------------------|
D|--------------------------------|--------------------------------|
A|--------------------------------|--------------------------------|
E|r-------------------------------|r-------------------------------|

G|--------------------------------|--------------------------------|
D|--------------------------------|--------------------------------|
A|--------------------------------|--------------------------------|
E|r-------------------------------|--------------------7---5-------|

   2x
G|--------------------------------|--------------------------------|
D|--------------------------------|--------------------------------|
A|--------------------------------|--------------------------------|
E|0---0---r-----0-0---0---r-----0-|0---0---r-----0-0---7---5-------|

[VERSE]
   4x
G|--------------------------------|--------------------------------|
D|--------------------------------|--------------------------------|
A|--------------------------------|--------------------------------|
E|0---0---r-----0-0---0---r-----0-|0---0---r-----0-0---7---5-------|

[CHORUS]           
G|--------------------------------|--------------------------------|
D|--------------------------------|--------------------------------|
A|--------------------------------|--------------------------------|
E|0-------0-----0-0---0---0---0---|2-------2-----2-2---2---2---2---|

G|--------------------------------|--------------------------------|
D|--------------------------------|--------------------------------|
A|--------------------------------|--------------------------------|
E|5-------5-----5-5---5---5---5---|7-------7-----7-7---7---7---7---|

G|--------------------------------|--------------------------------|
D|--------------------------------|--------------------6-------6-4-|
A|--------------------------------|----------------4h6-----4h6-----|
E|0-------0-----0-0---0---0---0---|2-------2-----2-----------------|

G|--------------------------------|------------------------------------|
D|--------------------------------|------------------------------------|
A|--------------------------------|---------------------11--------11-9-|
E|5-------5-----5-5---5---5---5---|7-------7-----7/9h11------9h11------|

[BRIDGE]
   2x
G|--------------------------------|--------------------------------|
D|--------------------------------|--------------------------------|
A|--------------------------------|--------------------------------|
E|0---0---r-----0-0---0---r-----0-|0---0---r-----0-0---7---5-------|

[VERSE]
   4x
G|--------------------------------|--------------------------------|
D|--------------------------------|--------------------------------|
A|--------------------------------|--------------------------------|
E|0---0---r-----0-0---0---r-----0-|0---0---r-----0-0---7---5-------|

[CHORUS]           
G|--------------------------------|--------------------------------|
D|--------------------------------|--------------------------------|
A|--------------------------------|--------------------------------|
E|0-------0-----0-0---0---0---0---|2-------2-----2-2---2---2---2---|

G|--------------------------------|--------------------------------|
D|--------------------------------|--------------------------------|
A|--------------------------------|--------------------------------|
E|5-------5-----5-5---5---5---5---|7-------7-----7-7---7---7---7---|

G|--------------------------------|--------------------------------|
D|--------------------------------|--------------------6-------6-4-|
A|--------------------------------|----------------4h6-----4h6-----|
E|0-------0-----0-0---0---0---0---|2-------2-----2-----------------|

G|--------------------------------|------------------------------------|
D|--------------------------------|------------------------------------|
A|--------------------------------|---------------------11--------11-9-|
E|5-------5-----5-5---5---5---5---|7-------7-----7/9h11------9h11------|

[BRIDGE]
   4x
G|--------------------------------|--------------------------------|
D|--------------------------------|--------------------------------|
A|--------------------------------|--------------------------------|
E|0---0---r-----0-0---0---r-----0-|0---0---r-----0-0---7---5-------|

[CHORUS]           
G|--------------------------------|--------------------------------|
D|--------------------------------|--------------------------------|
A|--------------------------------|--------------------------------|
E|0-------0-----0-0---0---0---0---|2-------2-----2-2---2---2---2---|

G|--------------------------------|--------------------------------|
D|--------------------------------|--------------------------------|
A|--------------------------------|--------------------------------|
E|5-------5-----5-5---5---5---5---|7-------7-----7-7---7---7---7---|

G|--------------------------------|--------------------------------|
D|--------------------------------|--------------------6-------6-4-|
A|--------------------------------|----------------4h6-----4h6-----|
E|0-------0-----0-0---0---0---0---|2-------2-----2-----------------|

G|--------------------------------|------------------------------------|
D|--------------------------------|------------------------------------|
A|--------------------------------|---------------------11--------11-9-|
E|5-------5-----5-5---5---5---5---|7-------7-----7/9h11------9h11------|

[OUTRO]
   2x
G|--------------------------------|--------------------------------|
D|--------------------------------|--------------------------------|
A|--------------------------------|--------------------------------|
E|0-------0-----0-0---0---0---0---|2-------2-----2-2---2---2---2---|

G|--------------------------------|--------------------------------|
D|--------------------------------|--------------------------------|
A|--------------------------------|--------------------------------|
E|5-------5-----5-5---5---5---5---|7-------7-----7-7---7---7---7---|

   2x
G|--------------------------------|--------------------------------|
D|--------------------------------|--------------------------------|
A|--------------------------------|--------------------------------|
E|0---0---r-----0-0---0---r-----0-|0---0---r-----0-0---7---5-------|


************************************

| r  Release
| h  Hammer-on
| /  Slide up

************************************

            
            
Suggest correction
Creating personal tab
Creating personal tab
You can edit any tab online and save it as your Personal.

You can edit, replace or remove any tab part or add personal notes – all changes will be seen only by you.

Personal tabs can be accessed anytime from any device, even offline.
Learn more »
comments
print report bad tab
2 comments total.
+1 reply
lbra73 658 Feb 01, 2014 03:04 AM

awesome! learned this song in 5 minutes thanks to this tab.

0 reply
BASSteve 1,495 Feb 05, 2014 12:38 PM

Cool - thanks !!

guest
You may want to rate the tab now too:
select rating
Wanna post a correction for this tab? Suggest correction