Oops, an error
Loading. Please wait.
We have an official My Own Worst Enemy tab made by UG professional guitarists. Check out the tab »
×
by Lit
393,630 views 249 this week
67 commentsread comments
1 2 3 4 5
x 357
add to favorites
×
Save as Personal and add changes to this tab that will be seen only by you. Learn more ›
×
You can save this tab as Personal to edit and correct it or add notes. All changes will be seen only by you. Learn more »
launch autoscroll
font size
0
reset
how to read this tab
guitar tuner
backing track
0:00
0:00
edit
Autoscroll
slow
fast
+/-
esc
set tempo
stop
Author
-------------------------------------------------------------------------------
                             My Own Worst Enemy - Lit
-------------------------------------------------------------------------------
Tabbed By: Funkey Munkey!

[Intro] 
e|---------------------------------------------------------------------------|
B|---------------------------------------------------------------------------|
G|-8-/-9-9-9-9-9-9-9---8-/-9-9-9-9-9-9-9-------------------------------------|
D|-----------------------------------------9--7------------------------------|
A|-6-/-7-7-7-7-7-7-7---6-/-7-7-7-7-7-7-7---9--7------------------------------|
E|-----------------------------------------7--5------------------------------|(x4)

[Verse]
e|---------------------------------------------------------------------------|
B|---------------------------------------------------------------------------|
G|---------------------------------------------------------------------------|
D|-2-2---2-2-2---2-2-2---2-2--9--7-------------------------------------------|
A|-2-2---2-2-2---2-2-2—--2-2--9--7-------------------------------------------|
E|-0-0---0-0-0---0-0-0—--0-0--7--5-------------------------------------------|(x4)

[Chorus]
e|---------------------------------------------------------------------------|
B|---------------------------------------------------------------------------|
G|---------------------------------------------------------------------------|
D|-2-------4-------7------7--------------------------------------------------|
A|-2-------4-------7------7--------------------------------------------------|
E|-0-------2-------5------9--------------------------------------------------|(x2)

[Intro] 
e|---------------------------------------------------------------------------|
B|---------------------------------------------------------------------------|
G|-8-/-9-9-9-9-9-9-9---8-/-9-9-9-9-9-9-9-------------------------------------|
D|-----------------------------------------9--7------------------------------|
A|-6-/-7-7-7-7-7-7-7---6-/-7-7-7-7-7-7-7---9--7------------------------------|
E|-----------------------------------------7--5------------------------------|(x2)

[Verse]
e|---------------------------------------------------------------------------|
B|---------------------------------------------------------------------------|
G|---------------------------------------------------------------------------|
D|-2-2---2-2-2---2-2-2---2-2--9--7-------------------------------------------|
A|-2-2---2-2-2---2-2-2—--2-2--9--7-------------------------------------------|
E|-0-0---0-0-0---0-0-0—--0-0--7--5-------------------------------------------|(x4)

[Chorus]
e|---------------------------------------------------------------------------|
B|---------------------------------------------------------------------------|
G|---------------------------------------------------------------------------|
D|-2-------4-------7------7--------------------------------------------------|
A|-2-------4-------7------7--------------------------------------------------|
E|-0-------2-------5------9--------------------------------------------------|(x2)

[BRIDGE / SOLO]                                 
e|---------------------------------------------------------------------------|
B|---------------------------------------------------------------------------|
G|-8-/-9-9-9-9-9-9-9—8-/-9-9-9-9-9-9-9-/-11-11-------------------------------|
D|-----------------------------------------------x2--------------------------|
A|-6-/-7-7-7-7-7-7-7—6-/-7-7-7-7-7-7-7-/-9--9--------------------------------|
E|---------------------------------------------------------------------------|

e|---------------------------------------------------------------------------|
B|---------------------------------------------------------------------------|
G|-11-/-13-13-13-13-13-13-13-13-13-13-13-13-13-13-/-14-14--------------------|
D|---------------------------------------------------------------------------|
A|-9-/--11-11-11-11-11-11-11-11-11-11-11-11-11-11-/-12-12--------------------|
E|---------------------------------------------------------------------------|

e|---------------------------------------------------------------------------|
B|---------------------------------------------------------------------------|
G|-14-/-16-16-16-16-/-18-18-18-18-/-16-16-16-16-/-14-14-14-14-/-13-13-13-13-/|
D|---------------------------------------------------------------------------|
A|-12-/-14-14-14-14-/-16-16-16-16-/-14-14-14-14-/-12-12-12-12-/-11-11-11-11-/|
E|---------------------------------------------------------------------------|

e|---------------------------------------------------------------------------|
B|---------------------------------------------------------------------------|
G|-14-14-14-14-/-13-13-13-13-/-11-11-11-11-----------------------------------|
D|---------------------------------------------------------------------------|
A|-12-12-12-12-/-11-11-11-11-/--9--9--9--9-----------------------------------|
E|---------------------------------------------------------------------------|

[Chorus]
e|---------------------------------------------------------------------------|
B|---------------------------------------------------------------------------|
G|---------------------------------------------------------------------------|
D|-2-------4-------7------7--------------------------------------------------|
A|-2-------4-------7------7--------------------------------------------------|
E|-0-------2-------5------9--------------------------------------------------|(x4)

[Intro] 
e|---------------------------------------------------------------------------|
B|---------------------------------------------------------------------------|
G|-8-/-9-9-9-9-9-9-9---8-/-9-9-9-9-9-9-9-------------------------------------|
D|-----------------------------------------9--7------------------------------|
A|-6-/-7-7-7-7-7-7-7---6-/-7-7-7-7-7-7-7---9--7------------------------------|
E|-----------------------------------------7--5------------------------------|(x2)

            
            
Suggest correction
Creating personal tab
Creating personal tab
You can edit any tab online and save it as your Personal.

You can edit, replace or remove any tab part or add personal notes – all changes will be seen only by you.

Personal tabs can be accessed anytime from any device, even offline.
Learn more »
comments
print report bad tab
67 comments total. Showing first comments. show 1 bad comment
0 reply
slipvayne311 285 Apr 26, 2002 08:00 PM

!

+7 reply
BLINKICKSASS69 0 May 02, 2002 08:00 PM

NICE LOOKING TAB!!!

guest
You may want to rate the tab now too:
select rating
Wanna post a correction for this tab? Suggest correction