Oops, an error
Loading. Please wait.
We have an official My Own Worst Enemy tab made by UG professional guitarists. Check out the tab »
×
by Lit
2,704 views 1 this week
no commentswrite comment
1 2 3 4 5
x 3
add to favorites
×
Save as Personal and add changes to this tab that will be seen only by you. Learn more ›
×
You can save this tab as Personal to edit and correct it or add notes. All changes will be seen only by you. Learn more »
launch autoscroll
font size
0
reset
how to read this tab
guitar tuner
backing track
0:00
0:00
edit
Autoscroll
slow
fast
+/-
esc
set tempo
stop
Author
below is the song my own worst enemy. Everything is there except the solo. You can 
play the song on the E string(as shown below) or on the A string(one higher) on the 5th and 
frets.

h = hammer on
p = pull off
r = let ring for 2 beats
Intro:
|----------------------------------------------------------------------|
|----------------------------------------------------------------------|
|----------------------------------------------------------------------|
|-----------------------------------------------------------------  ---|x4
|-------------------------------------------------------------11-9-----|
|-11-12h-12-12-12-12-12-12-12-11-12h-12-12-12-12-12-12-12-12--09-7-----|

verse 1
|-----------------------------------------------------------------|
|-----------------------------------------------------------------|
|-----------------------------------------------------------------|
|-----------------------------------------------------------------|   }x2
|-14r-14r-14r-14-11-9-14r-14r-14r-14-11-9-------------------------|
|-12r-12r-12r-12-09-7-12r-12r-12r-12-09-7-------------------------|

chorus:
|-----------------------------------------------------------------|
|-----------------------------------------------------------------|
|-----------------------------------------------------------------|
|-----------------------------------------------------------------|
|-14-14-14-14-14-14-14-14-14-14-14-11-9---------------------------|
|-12-12-12-12-12-12-12-12-12-12-12-09-7---------------------------|

|-----------------------------------------------------------------|
|-----------------------------------------------------------------|
|-----------------------------------------------------------------|
|-----------------------------------------------------------------|
|-14-14-14-14-14-14-14-14-14-14-14-14-14-11-9---------------------|
|-12-12-12-12-12-12-12-12-12-12-12-12-12-09-7---------------------|

intro comes back
|----------------------------------------------------------------------|
|----------------------------------------------------------------------|
|----------------------------------------------------------------------|
|-----------------------------------------------------------------  ---|x2
|-------------------------------------------------------------11-9-----|
|-11-12h-12-12-12-12-12-12-12-11-12h-12-12-12-12-12-12-12-12--09-7-----|


verse 2
|-----------------------------------------------------------------|
|-----------------------------------------------------------------|
|-----------------------------------------------------------------|
|-----------------------------------------------------------------|   }x2
|-14r-14r-14r-14-11-9-14r-14r-14r-14-11-9-------------------------|
|-12r-12r-12r-12-09-7-12r-12r-12r-12-09-7-------------------------|


chorus:
|-----------------------------------------------------------------|
|-----------------------------------------------------------------|
|-----------------------------------------------------------------|
|-----------------------------------------------------------------|
|-14-14-14-14-14-14-14-14-14-14-14-11-9---------------------------|
|-12-12-12-12-12-12-12-12-12-12-12-09-7---------------------------|

|-----------------------------------------------------------------|
|-----------------------------------------------------------------|
|-----------------------------------------------------------------|
|-----------------------------------------------------------------|
|-14-14-14-14-14-14-14-14-14-14-14-14-14-11-9---------------------|
|-12-12-12-12-12-12-12-12-12-12-12-12-12-09-7---------------------|


verse 3 (2nd guitar part under solo)
|-----------------------------------------------------------------|
|-----------------------------------------------------------------|
|-----------------------------------------------------------------|
|-----------------------------------------------------------------|   }x2
|-14r-14r-14r-14-11-9-14r-14r-14r-14-11-9-------------------------|
|-12r-12r-12r-12-09-7-12r-12r-12r-12-09-7-------------------------|


chorus:
|-----------------------------------------------------------------|
|-----------------------------------------------------------------|
|-----------------------------------------------------------------|
|-----------------------------------------------------------------|
|-14-14-14-14-14-14-14-14-14-14-14-11-9---------------------------|
|-12-12-12-12-12-12-12-12-12-12-12-09-7---------------------------|

|-----------------------------------------------------------------|
|-----------------------------------------------------------------|
|-----------------------------------------------------------------|
|-----------------------------------------------------------------|
|-14-14-14-14-14-14-14-14-14-14-14-14-14-11-9---------------------|
|-12-12-12-12-12-12-12-12-12-12-12-12-12-09-7---------------------|


verse 4
|-----------------------------------------------------------------|
|-----------------------------------------------------------------|
|-----------------------------------------------------------------|
|-----------------------------------------------------------------|   }x4
|-14r-14r-14r-14-11-9-14r-14r-14r-14-11-9-------------------------|
|-12r-12r-12r-12-09-7-12r-12r-12r-12-09-7-------------------------|


intro comes back
|----------------------------------------------------------------------|
|----------------------------------------------------------------------|
|----------------------------------------------------------------------|
|-----------------------------------------------------------------  ---|x2
|-------------------------------------------------------------11-9-----|
|-11-12h-12-12-12-12-12-12-12-11-12h-12-12-12-12-12-12-12-12--09-7-----|

            
            
Suggest correction
Creating personal tab
Creating personal tab
You can edit any tab online and save it as your Personal.

You can edit, replace or remove any tab part or add personal notes – all changes will be seen only by you.

Personal tabs can be accessed anytime from any device, even offline.
Learn more »
Give kudos to tab author, rate the tab!
1 2 3 4 5
comments
print report bad tab
guest
You may want to rate the tab now too:
select rating
Wanna post a correction for this tab? Suggest correction