Oops, an error
Loading. Please wait.
We have an official My Own Worst Enemy tab made by UG professional guitarists. Check out the tab »
×
by Lit
14,201 views 6 this week
4 commentsread comments
1 2 3 4 5
x 15
add to favorites
×
Save as Personal and add changes to this tab that will be seen only by you. Learn more ›
×
You can save this tab as Personal to edit and correct it or add notes. All changes will be seen only by you. Learn more »
launch autoscroll
font size
0
reset
how to read this tab
guitar tuner
backing track
0:00
0:00
edit
Autoscroll
slow
fast
+/-
esc
set tempo
stop
X===============================PLEASE NOTE==============================X
X  This tab is all my own and represents my interpretation of the song.  X
X You may only use this tab for private study, scholarship, or research. X
X  Do not change, deface, mutilate, or in any other way alter this tab.  X
X   You must email me first if you want to use this tab on your site.    X
X========================================================================X


*My Own Worst Enemy*
Transcribed by Obscured@san.rr.com
Http://home.san.rr.com/obscured


Tuning: E A D G B E


INTRO
|------------------------------------|
|------------------------------------|
|-8/9-9-9-9-9-9-9-9-8/9-9-9-9-9------|
|-------------------------------9\7--|
|-6/7-7-7-7-7-7-7-7-6/7-7-7-7-7-9\7--|
|-------------------------------7\5--|


VERSE
|---------------------------------|
|---------------------------------|
|---------------------------------|
|-2-2---2-2-2---2-2-2---2-2--9\7--|
|-2-2---2-2-2---2-2-2---2-2--9\7--|
|-0-0---0-0-0---0-0-0---0-0--7\5--|


CHORUS
|---------------------|
|---------------------|
|-----------2----4----|
|-2----4----2----4----|
|-2----4----0----2----|
|-0----2--------------|


BRIDGE - Play intro


VERSE 2 - Same


CHORUS 2 - Same


BRIDGE 2

                                      x2
|---------------------------------------|
|---------------------------------------|
|-8/9-9-9-9-9-9-9-9-8/9-9-9-9-9-11--11--|
|---------------------------------------|
|-6/7-7-7-7-7-7-7-7-6/7-7-7-7-7-9---9---|
|---------------------------------------|

|---------------------------------------------------|
|---------------------------------------------------|
|-11/13-13-13-13-13-13-13-13-13-13-13-13-13-14--14--|
|---------------------------------------------------|
|-9-/11-11-11-11-11-11-11-11-11-11-11-11-11-12--12--|
|---------------------------------------------------|

|-------------------------------------------------------------------------------------------------|
|-------------------------------------------------------------------------------------------------|
|-14/16-16-16-16/18-18-18-18\16-16-16-16\14-14-14-14\13-13-13-13/14-14-14-14\13-13-13-13\11-11-11-|
|-------------------------------------------------------------------------------------------------|
|-12/14-14-14-14/16-16-16-16\14-14-14-14\12-12-12-12\11-11-11-11/12-12-12-12\11-11-11-11\9--9--9--|
|-------------------------------------------------------------------------------------------------|


CHORUS 3 - Same

End on                             x2
|------------------------------------|
|------------------------------------|
|-8/9-9-9-9-9-9-9-9-8/9-9-9-9-9------|
|-------------------------------9\7--|
|-6/7-7-7-7-7-7-7-7-6/7-7-7-7-7-9\7--|
|-------------------------------7\5--|

            
            
Suggest correction
Creating personal tab
Creating personal tab
You can edit any tab online and save it as your Personal.

You can edit, replace or remove any tab part or add personal notes – all changes will be seen only by you.

Personal tabs can be accessed anytime from any device, even offline.
Learn more »
comments
print report bad tab
4 comments total. Showing first comments.
0 reply
Blinkerbum182 0 Feb 20, 2002 07:00 PM

amazing fuckin tab bro..

0 reply
sean_d 60 Nov 16, 2002 07:00 PM

WOW! This tab's 100% perfect!!

-1 reply
limpbizkit3240 10 Jan 09, 2003 07:00 PM

-----------------------------------
-----------------------------------
---8-9-9-9-9-9-9-8-9-9-9-9-9-9-----
---8-9-9-9-9-9-9-8-9-9-9-9-9-9-9-9-
---6-7-7-7-7-7-7-6-7-7-7-7-7-7-9-9-
-------------------------------7-7-

for the intro it's x4

guest
Wanna post a correction for this tab? Suggest correction