Oops, an error
Loading. Please wait.

Surf Hell intro tab

version 1
version 1

Intro

Whole song

Interactive

6,879 views 6 this week
3 commentsread comments
1 2 3 4 5
1 last vote to show rating
add to favorites
×
Save as Personal and add changes to this tab that will be seen only by you. Learn more ›
×
You can save this tab as Personal to edit and correct it or add notes. All changes will be seen only by you. Learn more »
launch autoscroll
font size
0
reset
how to read this tab
guitar tuner
edit
Autoscroll
slow
fast
+/-
esc
set tempo
stop
Author
Difficulty
[Intro]

This one has been bugging me for ages, so thought I would tab it up. My first effort at 
tabbing so any alterations/additions are welcome. Some distortion preferable.
Enjoy!


e|-------------------------------------|
B|-------------------------------------|
G|-------------------------------------|
D|-------------------------------------|
A|------5---4b------5---5-4b-----------|
E|--3-3---3----6b-3---3------6-3-1-----|



************************************

| b  Bend

************************************

            
            
Suggest correction
Creating personal tab
Creating personal tab
You can edit any tab online and save it as your Personal.

You can edit, replace or remove any tab part or add personal notes – all changes will be seen only by you.

Personal tabs can be accessed anytime from any device, even offline.
Learn more »
Give kudos to tab author, rate the tab!
1 2 3 4 5
comments
print report bad tab
3 comments total.
0 reply
Lebesque 266 Jun 07, 2012 11:29 AM

You're definitely close and it sounds good as you tabbed it, but after watching the "official" video on youtube I'm pretty sure they play it like this:

e|------------------------------------|
B|------------------------------------|
G|------------------------------------|
D|------------------------------------|
A|------5---4b-----5---5-4b-----------|
E|--3-3---6----3-3---3------6-3-1-----|

+2 reply
Lebesque 266 Jun 07, 2012 11:57 AM

I switched the wrong note out above, it should be this:

e|------------------------------------|
B|------------------------------------|
G|------------------------------------|
D|------------------------------------|
A|------5---4b-----5---5-4b-----------|
E|--3-3---3----6-3---3------6-3-1-----|

0 reply
daphotoguy 24 Aug 25, 2016 08:32 AM

I'd have to agree with Lebesque's correction. Just watched the video and listened to the song.

guest
You may want to rate the tab now too:
select rating
Wanna post a correction for this tab? Suggest correction