Oops, an error
Loading. Please wait.

Come On Come On bass

1,594 views 1 this week
2 commentsread comments
1 2 3 4 5
1 last vote to show rating
add to favorites
×
Save as Personal and add changes to this tab that will be seen only by you. Learn more ›
×
You can save this tab as Personal to edit and correct it or add notes. All changes will be seen only by you. Learn more »
launch autoscroll
font size
0
reset
guitar tuner
edit
Autoscroll
slow
fast
+/-
esc
set tempo
stop
Author
Difficulty
SONG: COME ON COME ON
ARTIST: LITTLE BIRDY
ALBUM: HOLLYWOOD
DURATION: 3:53

hmm... this wasnt too tricky to figure out, but it took me about 10 minutes to figure 
that the outro is just the second part of the chorus + the first part + the second + the 
oh well. it was fun!

pretty easy to play and good to jam with. one of my fave songs and got me into little 
congradulations to katy steele, simon leach, barney o'donoughue and matt chequer for 
a fantastic song!


in the intro you can play as well. i dont think there is bass, just the keyboard. but 
intro is the same as the verse if you want to play

verse [0:09 - 0:37]
G|-------------------------------|
D|-----------------------------2-|     x7
A|-2-2-2-2-2-2-2---4-4-4-4-4-4---|
E|-------------------------------|


pre chorus [0:38 - 0:57]
G|-------------------------------|-------------------------------|
D|-------2~----------4~----------|-------2~----------------------|     x1
A|-4~----------2~----------------|-4~----------2~----------------|
E|-------------------------------|-------------------2~----------|


chorus [0:58 - 1:16]
G|-------------------------------|-------------------------------|
D|-----------------------4-4-4-4-|-------2-2-2-2---------4-4-4-4-|     x2
A|-4-4---2-2-2-2---2-2-----------|-4-4-------------2-2-----------|
E|-------------------------------|-------------------------------|


verse [1:17 - 1:33]
G|-------------------------------|
D|-----------------------------2-|     x4
A|-2-2-2-2-2-2-2---4-4-4-4-4-4---|
E|-------------------------------|


pre chorus [1:34 - 1:52]
G|-------------------------------|-------------------------------|
D|-------2~----------4~----------|-------2~----------------------|     x1
A|-4~----------2~----------------|-4~----------2~----------------|
E|-------------------------------|-------------------2~----------|


chorus [1:53 - 2:11]
G|-------------------------------|-------------------------------|
D|-----------------------4-4-4-4-|-------2-2-2-2---------4-4-4-4-|     x2
A|-4-4---2-2-2-2---2-2-----------|-4-4-------------2-2-----------|
E|-------------------------------|-------------------------------|


interlude [2:12 - 2:35]
G|-------------------------------|
D|-------2-2-2-2---------4-4-4-4-|     x4
A|-4-4-------------2-2-----------|
E|-------------------------------|

G|--------|
D|--------|     x1
A|-4~-----|
E|--------|


bridge [2:36 - 2:54]
G|-------------------------------|
D|-------------------------------|     x4
A|-------------------------------|
E|-------------------------------|


pre chorus outro [2:55 - 3:04]
G|-------------------------------|
D|-------2-2-2-2---------4-4-4-4-|     x2
A|-4-4-------------2-2-----------|
E|-------------------------------|


chorus [3:05 - 3:23]
G|-------------------------------|-------------------------------|
D|-----------------------4-4-4-4-|-------2-2-2-2---------4-4-4-4-|     x2
A|-4-4---2-2-2-2---2-2-----------|-4-4-------------2-2-----------|
E|-------------------------------|-------------------------------|


outro [3:24 - 3:53]
G|-------------------------------|-------------------------------|
D|-------2-2-2-2---------4-4-4-4-|-----------------------4-4-4-4-|     x1
A|-4-4-------------2-2-----------|-4-4---2-2-2-2---2-2-----------|
E|-------------------------------|-------------------------------|


G|-------------------------------|-------------------------------|
D|-------2-2-2-2---------4-4-4-4-|-------2-2-2-2---------4-4-4-4-|     x1
A|-4-4-------------2-2-----------|-4-4-------------2-2-----------|
E|-------------------------------|-------------------------------|


***END***

note: when i tab bass stuff, most of the time, the ~ symbol means to hold the note; but 
i tab guitar or say that the ~ symbol means vibrato, it is vibrato.
in this case: ~ = hold the note

            
            
Suggest correction
Creating personal tab
Creating personal tab
You can edit any tab online and save it as your Personal.

You can edit, replace or remove any tab part or add personal notes – all changes will be seen only by you.

Personal tabs can be accessed anytime from any device, even offline.
Learn more »
Give kudos to tab author, rate the tab!
1 2 3 4 5
comments
print report bad tab
2 comments total.
0 reply
zapfino««« 52 Feb 29, 2008 09:15 PM

ooopsie. the intro isnt the same as the verse. it goes

G|-------------------------------------------------------------|
D|-----------------------------2-2-2-2-------------------------|
A|-2-2-2-2-2-2-2---4-4-4-4-4-4---------2-2-2-2---4-4-4-4-4-4-4-|
E|-------------------------------------------------------------|

0 reply
zapfino««« 52 Sep 08, 2008 05:40 PM

G|-------------------------------------------------------------|
D|-----------------------------2-2-2-2-------------------------|
A|-2-2-2-2-2-2-2---4-4-4-4-4-4---------2-2-2-2---4-4-4-4-4-4-4-|
E|-------------------------------------------------------------|

guest
You may want to rate the tab now too:
select rating
Wanna post a correction for this tab? Suggest correction