Oops, an error
Loading. Please wait.

Meddle tab

1,083 views 1 this week
no commentswrite comment
1 2 3 4 5
3 more votes to show rating
add to favorites
×
Save as Personal and add changes to this tab that will be seen only by you. Learn more ›
×
You can save this tab as Personal to edit and correct it or add notes. All changes will be seen only by you. Learn more »
launch autoscroll
font size
0
reset
how to read this tab
guitar tuner
edit
Autoscroll
slow
fast
+/-
esc
set tempo
stop
drop d tuning


intro:(the pace is easy to figure out if you listen to the song)

e--------------------------------------|
b--------------------------------------|
g-------------------------9-10-9-7-----|  x4
d-0--0---3--3---7--7---7-----------0---|
a-0--0---3--3---7--7---7---------------|
d-0--0---3--3---7--7---7---------------|

verse:

"i remember all the things she did before..."

e--------------------------------------|
b--------------------------------------|
g-------------------------9-10-9-7-----|  x4
d-0--0---3--3---7--7---7-----------0---|
a-0--0---3--3---7--7---7---------------|
d-0--0---3--3---7--7---7---------------|

chorus:

"don't meddle with the heart, meddle with the mind..."

e-----------------------------------------|
b-----------------------------------------|
g-----------------------------------------| x4
d-88888888--55555555--00000000--33333333--|
a-88888888--55555555--00000000--33333333--|
d-88888888--55555555--00000000--33333333--|


thats basically it the rest of the song goes;

verse
chorus
breakdown/ooh,aah bit (same notes as chorus)
chorus
outro (same notes as chorus)

this is my first tab so rate it for me x

            
            
Suggest correction
Creating personal tab
Creating personal tab
You can edit any tab online and save it as your Personal.

You can edit, replace or remove any tab part or add personal notes – all changes will be seen only by you.

Personal tabs can be accessed anytime from any device, even offline.
Learn more »
Give kudos to tab author, rate the tab!
1 2 3 4 5
comments
print report bad tab
guest
You may want to rate the tab now too:
select rating
Wanna post a correction for this tab? Suggest correction