Oops, an error
Loading. Please wait.

Moving Day chords

version 2
version 2

Whole song

  • This includes the tabs along with chords and lyrics.
316 views 1 this week
no commentswrite comment
1 2 3 4 5
3 more votes to show rating
add to favorites
×
Save as Personal and add changes to this tab that will be seen only by you. Learn more ›
×
You can save this tab as Personal to edit and correct it or add notes. All changes will be seen only by you. Learn more »
launch autoscroll
font size
0
reset
transpose
0
reset
simplify chords
display chords
guitar tuner
edit
Autoscroll
slow
fast
+/-
esc
set tempo
stop
About this tab version
This includes the tabs along with chords and lyrics. Was this info helpful? Yes No
Strumming
There is no strumming pattern for this song yet. and get +5 IQ
    C    G    Em  D/F#  C5   Am
e|--X----3----0----2----X----X-|
B|--3----2----2----0----3----0-|
G|--2----0----2----0----2----2-|
D|--0----0----0----2----0----2-|
A|--X----X----X----X----2----3-|
E|--X----X----X----X----0----0-|



e|--------------------------------------------------------| (Then play a c
B|--------3p0---------------------3p0---------------------| but john moves
G|------------0h2/4/2-0---------------0h2/4/2-------------| his index finger  (X2)
D|---------------------2h0---------------------2h0--------| up and down)
A|-----0h2----------------2h0--0h2----------------2h0-----|
E|---3------------------------3---------------------------| 



C                        
   I know that you’re not ok, 
                                    G
But I’ve been doing my best to help, 
                                 D/F#
And at the same time I’ve been desperately trying, 
                  C
To reinvent myself. 

Are you thinking like I am, 
                                   G
And does it keep you awake at night? 
                             D/F#
How you could use a real man, 

I bet you’re sick of little boys. 


e|--------------------------------------------------------| (Then play a C
B|--------3p0---------------------3p0---------------------| but john moves
G|------------0h2/4\2-0---------------0h2/4/2-------------| his index finger  (X2)
D|---------------------2h0---------------------2h0--------| up and down)
A|-----0h2----------------2h0--0h2----------------2h0-----|
E|---3------------------------3---------------------------| 


C
   I’m getting sick of saying words, 
                                       G
And you always see things for the worst. 
                                   D/F#
I’m getting tired of watching your eyes glaze over, 
                            C
When I try to explain myself. 

‘Cause any less will just never do, 
                                      G
When you need someone like I need you. 
                                     D/F#
I’ll make you miss everything we had, 
                                      
If you can see past my attention span. 


Em D/F# C


I can never stay in the same place, 
            Em       D/F#        C
‘Cause I’m afraid of being known. 

And I’ve got so much left to tell you, 
               Em               D/F#       C
But there’s so much that you’ll never know. 

And I keep pushing you away, 
           Em      D/F#           C
And I know one day that you’ll go. 

Leave me with the emptiness that I made, 
          Em         D/F#         C
And I’ll die waiting by the phone. 

         Em      D/F#           C
And if I make it out of my room, 

I’ll look for you. 


e|--------------------------------------------------------| (Then play a c
B|--------3p0---------------------3p0---------------------| but john moves
G|------------0h2/4/2-0---------------0h2/4\2-------------| his index finger  (X2)
D|---------------------2h0---------------------2h0--------| up and down)
A|-----0h2----------------2h0--0h2----------------2h0-----|
E|---3------------------------3---------------------------| 


C
   I hear you picked a moving day, 
                                         G
And I picked the wrong day for cold feet. 
                        D/F#
I tried this once before, 
                                     C
And it took everything I had from me. 

Against better judgement I’d start again, 
                                            G
And find someone that I could call a friend. 
                            D/F#
The only person that I know, 

Who loves me, 

That doesn’t have to. 


Em D/F# C

I can never stay in the same place, 
            Em       D/F#        C
‘Cause I’m afraid of being known. 

And I’ve got so much left to tell you, 
               Em               D/F#       C
But there’s so much that you’ll never know. 

And I keep pushing you away, 
           Em      D/F#           C
And I know one day that you’ll go. 

Leave me with the emptiness that I made, 
          Em         D/F#         C
And I’ll die waiting by the phone. 

         Em      D/F#           C
And if I make it out of my room, 
                   
I’ll look for you. 
(C) Am D/F# G

C5
Fuck it let’s get married and we’ll run away together, 
           Am
We’ll have tiny little jobs, 

And a city apartment, 
         D/F#
And I’ll never have to say goodbye again. 

As long as the city Summer breeze, 
                                  C5
Blows through those white curtains.



LEGEND
h - hammer on 
p - pull off 
/ - slide up
\ - slide down
x - play 'note' with heavy damping

            
            
Suggest correction
Creating personal tab
Creating personal tab
You can edit any tab online and save it as your Personal.

You can edit, replace or remove any tab part or add personal notes – all changes will be seen only by you.

Personal tabs can be accessed anytime from any device, even offline.
Learn more »
Give kudos to tab author, rate the tab!
1 2 3 4 5
comments
print report bad tab
guest
You may want to rate the tab now too:
select rating
Wanna post a correction for this tab? Suggest correction