Oops, an error
Loading. Please wait.

Evaporar tab

version 2
version 2

Whole song

23,856 views 66 this week
1 commentread comment
1 2 3 4 5
x 20
add to favorites
×
Save as Personal and add changes to this tab that will be seen only by you. Learn more ›
×
You can save this tab as Personal to edit and correct it or add notes. All changes will be seen only by you. Learn more »
launch autoscroll
font size
0
reset
how to read this tab
guitar tuner
edit
Autoscroll
slow
fast
+/-
esc
set tempo
stop
Author
Band: little joy
Song: evaporar
Standard tuning
Tabbed by: jedichewy
*Update for additional picking*

[Intro]
e|-11----------11---9----7---9------------9---7----5---4------------|
B|-9--9----------------------10--10--------------------4-4----------|
G|-9------9------------------9--------9----------------4-----4------|
D|-x-------------------------x-------------------------x------------|
A|-0-------------------------0-------------------------0------------|
E|-0----0----0----0----0---0-0------0---0---0---0----0-----0---0----|

                 /  \                           /  \
e|---4----5---7---9---2---------2----------------------------|
B|--------------------2-2-----------2----4---5---7---4-------|
G|--------------------2-----2--------------------------4-----|
D|--------------------x----------------------------------6---|
A|--------------------0--------------------------------------|
E|-----0----0-------------0---0---0---0----0-----------------|

[Play intro again]
[After the second time, you enter the main riff]
[Main Riffs: there are two main riffs for the verse parts
you can play it how you like in the picking part, listen to the song to
get a better feel]

    riff 1                riff 2
e|--4--4---4---4--4---4---2--2---2---2--2---2-------|
B|--4--4---4---4--4---4---2--2---2---2--2---2-------|
G|--4--4---4---4--4---4---2--2---2---2--2---2-------|
D|--6--6---6---6--6---6---4--4---4---4--4---4-------|
A|--7----7----------7----------0----------0---------|
E|-----------0----------0----------0----------0-----|
(you repeat these 2 riffs for the verses. When you go into the chorus, 
you will be ending on riff 2 and then you play the chorus riff below)

[Chorus](you can strum to your liking)
e|-2--2--2----4--4--4----4--4--4--4--4--4----2--2--2-----------------------|
B|-2--2--2----4--4--4----5--5--5--5--5--5----2--2--2----7--5---------------|
G|-2--2--2----5--5--5----6--6--6--4--4--4----2--2--2----6--5---------------|
D|-4--4--4----6--6--6----6--6--6--6--6--6----4--4--4----0--0---------------|
A|-4--4--4----6--6--6----4--4--4--4--4--4----4--4--4-----------------------|
E|-2--2--2----4--4--4------------------------2--2--2-----------------------|

    riff 1                riff 2
e|--4--4---4---4--4---4---2--2---2---2--2---2-------|
B|--4--4---4---4--4---4---2--2---2---2--2---2-------|
G|--4--4---4---4--4---4---2--2---2---2--2---2-------|
D|--6--6---6---6--6---6---4--4---4---4--4---4-------|
A|--7----7----------7----------0----------0---------|
E|-----------0----------0----------0----------0-----|

(When you play the chorus riff again, this is the last part towards the end after 
he says evaporar...)
e|--7--------7-----5--------7-----4-------4------4-5--2--4-------|
B|--5--5-----5-----5--5-----5-----4---4---4------4---------------|
G|--5--5-----5-----5--5-----5-----4---4---4----------------------|
D|--7--7-----7-----7--7-----7-----2---2---2----------------------|
A|0-------0-----0--------0-----0---------------------------------|
E|--------------------------------------0------0-----------------|

e|--7--------7-----5--------7-----4------4------4-5--2-----------|
B|--5--5-----5-----5--5-----5-----4------4------4----------------|
G|--5--5-----5-----5--5-----5-----4------4-----------------------|
D|--7--7-----7-----7--7-----7-----2------2-----------------------|
A|---------------------------------------------------------------|
E|--------0-----0--------0-----0------0------0-------------------|

                            side
e|-7--------7-----5--------7----11--------------|
B|-5--5-----5-----5--5-----5----9---------------|
G|-5--5-----5-----5--5-----5----9---------------|
D|-7--7-----7-----7--7-----7--------------------|
A|----------------------------------------------|
E|-------0-----0--------0----0------------------|

************************************

| x  Dead note

************************************

            
            
Suggest correction
Creating personal tab
Creating personal tab
You can edit any tab online and save it as your Personal.

You can edit, replace or remove any tab part or add personal notes – all changes will be seen only by you.

Personal tabs can be accessed anytime from any device, even offline.
Learn more »
comments
print report bad tab
1 comment total.
+1 reply
burndttoast 73 Apr 09, 2016 11:05 AM

I've favorited this tab. Still think it's great every time I revisit it.

guest
You may want to rate the tab now too:
select rating
Wanna post a correction for this tab? Suggest correction