Oops, an error
Loading. Please wait.

Hello Miss Lovely So You Like My Jeans bass

284 views 3 this week
no commentswrite comment
1 2 3 4 5
2 more votes to show rating
add to favorites
×
Save as Personal and add changes to this tab that will be seen only by you. Learn more ›
×
You can save this tab as Personal to edit and correct it or add notes. All changes will be seen only by you. Learn more »
launch autoscroll
font size
0
reset
guitar tuner
edit
Autoscroll
slow
fast
+/-
esc
set tempo
stop
Author
Difficulty
---------------------------------------------------------------------
	      HELLO MISS LOVELY – Little Man Tate
---------------------------------------------------------------------

Tabbed By : Anna
Tuning: standard
Great song :D Listen to the song to get the timing just right. There aren't enough bass 
for Little Man Tate on here.

Intro:
G|------------------------------------------------------------------|
D|------------------------------------------------------------------|
A|3-2-3-2-3-2-2222-2222-2222-2222-2222-2222-2222-2222---------------|
E|------------------------------------------------------------------|

G|------------------------------------------------------------------|
D|------------------------------------------------------------------|
A|------22------22------22------22----------------------------------|
E|004455--004455--004455--004455------------------------------------|

G|------------------------------------------------------------------|
D|------------------------------------------------------------------|
A|------------2222------------22------------------------------------|
E|000044445555----000044445555—-4-----------------------------------|

Verses: “He wakes up…” and “Hits the bar…”
G|------------------------------------------------------------------|
D|------------------------------------------------------------------|
A|------------2~--------------2--4-5-7----------2--4-5-7------2-----|
E|0~--4~--5~------0~--4~--5~------------4~--5~------------4-5-------|

Bridge: “He goes to…” and “She goes to…”
G|------------------------------------------------------------------|
D|------------------------------------------------------------------|
A|------------2222------------2222------------2222------------------|
E|000044445555----000044445555----000044445555----------------------|

G|------------------------------------------------------------------|
D|------------------------------------------------------------------|
A|------------------------22222---------------------------2-2-------|
E|222222224444444455555555-----543222222224444444455555555----------|

Chorus: “This should be…”
G|------------------------------------------------------------------|
D|------------------------------------------------------------------|
A|------------------------------------------------------------------|
E|00004444000044440000444400~--00~----------------------------------|

G|------------------------------------------------------------------|
D|------------------------------------------------------------------|
A|------------------------------------------------------------------|
E|00004444000044440000444400~--0~-----------------------------------|

G|----------------|-------------------------------------------------|
D|----------------|-------------------------------------------------|
A|------------22~-|-(x2 second time)--------------------------------|
E|00~-44~-55~-----|-------------------------------------------------|

Then play:
Verse
Bridge
Chorus
Ending
Ending:
G|------------------------------------------------------------------|
D|------------------------------------------------------------------|
A|------------2222------------2222----------------------------------|
E|000044445555----000044445555—---0~--------------------------------|


| /  slide up
| \  slide down
| h  hammer-on
| p  pull-off
| ~  vibrato
| +  harmonic
| x  Mute note
=====================================================================

            
            
Suggest correction
Creating personal tab
Creating personal tab
You can edit any tab online and save it as your Personal.

You can edit, replace or remove any tab part or add personal notes – all changes will be seen only by you.

Personal tabs can be accessed anytime from any device, even offline.
Learn more »
Give kudos to tab author, rate the tab!
1 2 3 4 5
comments
print report bad tab
guest
You may want to rate the tab now too:
select rating
Wanna post a correction for this tab? Suggest correction