Oops, an error
Loading. Please wait.

House Party At Boothys tab

version 3
version 3

Whole song

662 views 1 this week
no commentswrite comment
1 2 3 4 5
1 last vote to show rating
add to favorites
×
Save as Personal and add changes to this tab that will be seen only by you. Learn more ›
×
You can save this tab as Personal to edit and correct it or add notes. All changes will be seen only by you. Learn more »
launch autoscroll
font size
0
reset
how to read this tab
guitar tuner
edit
Autoscroll
slow
fast
+/-
esc
set tempo
stop
Author
Song: House Party At Boothy's
Artist: Little Man Tate
Album: About What You Know

This is the best version I could make of this but it is quite accurate I think

INTRO -

E|------------------------------------------------------|
B|------------------------------------------------------|
G|------------------------------------------------------|
D|-------2-5-2-------2-5-5-6-7-7-6-5-5-6-7-6-7-9--------|
A|--3-5--------5-3-5------------------------------------|
E|------------------------------------------------------|

VERSE - Just this chord progression

   C     Em    Am    Em    Fadd9  Em    F      G7
E|-8-----7-----5-----7-----8------7-----8------10-----|
B|-8-----8-----5-----8-----10-----8-----10-----12-----|
G|-9-----9-----5-----9-----12-----9-----10-----10-----|
D|-10----9-----7-----9-----10-----9-----10-----12-----|:Repeat as
A|-10----7-----7-----7-----8------7-----8------10-----| necessary
E|-8-----------5--------------------------------------|

CHORUS - Another chord progression

   Am    G     F     Am    c     G     F(let higher notes ring)
E|-0-----3-----1-----0-----0-----3-----1---------------|
B|-1-----3-----1-----1-----1-----3-----1---------------|
G|-2-----0-----2-----2-----0-----0-----2---------------|
D|-2-----0-----3-----2-----2-----0-----3---------------|
A|-0-----2-----3-----0-----3-----2-----3---------------|
E|-------3-----1-----------------3-----1-0-1-0-1-0-1-0-|

BRIDGE - similar to the Intro

E|------------------------------------------------------|
B|------------------------------------------------------|
G|--------------------------7-9-7----------7-9-7----7---|
D|-------2-5-2-------2-5-10-------10----10-------10-----|
A|--3-5--------5-3-5-----------------10-----------------|
E|------------------------------------------------------|

VERSE - A bit less simple as it varies somewhat

   C     Em    Am    Em    Fadd9  Em    F  F#    G7 F#7 F  Em
E|-8-----7-----5-----7-----8------7-----8--9-----10-9---8--7-|
B|-8-----8-----5-----8-----10-----8-----10-11----12-11--10-8-|
G|-9-----9-----5-----9-----12-----9-----10-11----10-9---10-9-|
D|-10----9-----7-----9-----10-----9-----10-11----12-11--10-9-|
A|-10----7-----7-----7-----8------7-----8--9-----10-9---8--7-|
E|-8-----------5---------------------------------------------|

   C    Em         Am      Em         Fadd9 Em   F    G7
E|-8----8----------5---------------7--8-----7----8----10-|
B|-8------9-----9----5-----7/9---9----10----8----10---12-|
G|-9--------7-7--------7-------9------12----9----10---10-|
D|-10--------------------7------------10----9----10---12-|
A|-10---------------------------------8-----7----8----10-|
E|-8-----------------------------------------------------|

   C     Em    Am    Em    Fadd9  Em    F      G7
E|-8-----7-----5-----7-----8------7-----8---9---10------|
B|-8-----8-----5-----8-----10-----8-----10--11---12-----|
G|-9-----9-----5-----9-----12-----9-----10--11---10-----|
D|-10----9-----7-----9-----10-----9-----10--11---12-----|
A|-10----7-----7-----7-----8------7-----8---9---10------|
E|-8-----------5----------------------------------------|

All these chords are then strummed once to end the verse

   C     Em    Am    Em    Fadd9  Em    F      G7
E|-8-----7-----5-----7-----8------7-----8------10-----|
B|-8-----8-----5-----8-----10-----8-----10-----12-----|
G|-9-----9-----5-----9-----12-----9-----10-----10-----|
D|-10----9-----7-----9-----10-----9-----10-----12-----|
A|-10----7-----7-----7-----8------7-----8------10-----|
E|-8-----------5--------------------------------------|

Then just repeat the chorus before going back to the introduction until it fades out

On the second time around on the introduction to end, when the vocals to come in, I 
a slight
change;


E|------------------------------------------------------|
B|------------------------------------------------------|
G|------------------------------------------------------|
D|-------2-5-2-------2-5-5-6-7-7-6-5-3-2-0---------2----|
A|--3-5--------5-3-5-----------------------3-2-0-3------|
E|------------------------------------------------------|

Then on the third time, the verse chords come in on top to create the climax

And thats basically it, I think its pretty accurate, so enjoy

            
            
Suggest correction
Creating personal tab
Creating personal tab
You can edit any tab online and save it as your Personal.

You can edit, replace or remove any tab part or add personal notes – all changes will be seen only by you.

Personal tabs can be accessed anytime from any device, even offline.
Learn more »
Give kudos to tab author, rate the tab!
1 2 3 4 5
comments
print report bad tab
guest
You may want to rate the tab now too:
select rating
Wanna post a correction for this tab? Suggest correction