Oops, an error
Loading. Please wait.

Omg bass

154 views 1 this week
no commentswrite comment
1 2 3 4 5
3 more votes to show rating
add to favorites
×
Save as Personal and add changes to this tab that will be seen only by you. Learn more ›
×
You can save this tab as Personal to edit and correct it or add notes. All changes will be seen only by you. Learn more »
launch autoscroll
font size
0
reset
guitar tuner
edit
Autoscroll
slow
fast
+/-
esc
set tempo
stop
Author
Difficulty
The bass starts after they sing "Oh my gosh, I did it again!"

[Intro]
G|------------------------------------------------------|
D|------------------------------------------------------|
A|-3--3-3-3-5-6--------------3--3-3-3-5-6---------------|
E|--------------4--6-6-6-6-6---------------4--3-3-3-3-3-|

[Verse 1]
G|-------------------------------|
D|-------------------------------|
A|-3--3-3-3-3-5-6----------------|
E|----------------4--6-6-6-6-6-6-| x3
[I don’t even know how I did that, need a round of applause
Just like cream to a kitty cat, lining up at the door
Maybe it’s the way I work it, my beach bring the boys to the shore]

G|----------------------|
D|----------------------|
A|-3--3-3-3-3-5-6-------|
E|----------------4-4-4-|
[Maybe it’s the way I flirt, that they get hurt, they just don’t learn]

[Pre-Chorus]
G|-----------------------------------------------|
D|-----------------------------------------------|
A|-3--3-3-3-3-5-6----------------3--3-3-3-3-5-6--|
E|----------------4--6-6-6-6-6-6-----------------|
[I don’t even know why they fall like dominoes]

[Chorus]
G|-------------------------------|
D|-------------------------------|
A|-3--3-3-3-3-5-6----------------|
E|----------------4--6-6-6-6-6-6-| x3
[Oh my gosh, I did it again
He said I broke his heart, it keeps happening
I don’t know why they always fall for me]

G|---------------------------|
D|---------------------------|
A|-3--3-3-3-3-5-6------------|
E|----------------4--6-6-6-6-|
[Why they always fall for]

G|-------------------------------|
D|-------------------------------|
A|-3--3-3-3-3-5-6----------------|
E|----------------4--6-6-6-6-6-6-| x4
[Oh my gosh, I did it again
He said I broke his heart, it keeps happening
I don’t know why they always fall for me
Why they always fall for]

G|------------------------------------------------------|
D|------------------------------------------------------|
A|-3--3-3-3-5-6--------------3--3-3-3-5-6---------------|
E|--------------4--6-6-6-6-6---------------4--6-6-6-6-6-|
[Oh nana oh nana oh nana oh
Oh nana oh nana oh nana oh]

[Verse 2]
G|-------------------------------|
D|-------------------------------|
A|-------------------------------|
E|----------------4--6-6-6-6-6-6-|
[Them boys getting too ambitious, they should win an award]

G|-------------------------------|
D|-------------------------------|
A|-3--3-3-3-3-5-6----------------|
E|----------------4--6-6-6-6-6-6-| x2
[Got twenty more, plenty more fishes, but I still come first
Maybe I’m superstitious, I wanna break this curse]

G|----------------------|
D|----------------------|
A|-3--3-3-3-3-5-6-------|
E|----------------4-4-4-|
[They say they wanna lay it on me, I’m the one and only girl]

[Pre-Chorus]
G|-----------------------------------------------|
D|-----------------------------------------------|
A|-3--3-3-3-3-5-6----------------3--3-3-3-3-5-6--|
E|----------------4--6-6-6-6-6-6-----------------|
[I don’t even know why they fall like dominoes]

[Chorus]
G|-------------------------------|
D|-------------------------------|
A|-3--3-3-3-3-5-6----------------|
E|----------------4--6-6-6-6-6-6-| x3
[Oh my gosh, I did it again
He said I broke his heart, it keeps happening
I don’t know why they always fall for me]

G|---------------------------|
D|---------------------------|
A|-3--3-3-3-3-5-6------------|
E|----------------4--6-6-6-6-|
[Why they always fall for]

G|-------------------------------|
D|-------------------------------|
A|-3--3-3-3-3-5-6----------------|
E|----------------4--6-6-6-6-6-6-| x4
[Oh my gosh, I did it again
He said I broke his heart, it keeps happening
I don’t know why they always fall for me
Why they always fall for]

G|------------------------------------------------------|
D|------------------------------------------------------|
A|-3--3-3-3-5-6--------------3--3-3-3-5-6---------------|
E|--------------4--6-6-6-6-6---------------4--6-6-6-6-6-|
[Oh nana oh nana oh nana oh
Oh nana oh nana oh nana oh]

[Bridge]
G|-------------------------------|
D|-------------------------------|
A|-3--3-3-3-3-5-6----------------|
E|----------------4--6-6-6-6-6-6-| x3
[Oh my gosh I think I did it again
I broke his heart, why does this keep happening?
Don’t come crying when I say it’s the end
I’m ringing the alarm, boy you better run on]

[Chorus]
G|-------------------------------|
D|-------------------------------|
A|-3--3-3-3-3-5-6----------------|
E|----------------4--6-6-6-6-6-6-| x3
[Oh my gosh, I did it again
He said I broke his heart, it keeps happening
I don’t know why they always fall for me]

G|---------------------------|
D|---------------------------|
A|-3--3-3-3-3-5-6------------|
E|----------------4--6-6-6-6-|
[Why they always fall]

[Outro]
G|-------------------------------------------------------------|
D|-------------------------------------------------------------|
A|-3--3-3-3-3-5-6----------------3--3-3-3-3-5-6----------------|
E|----------------4--6-6-6-6-6-6----------------4--6-6-6-6-6-6-|
[Oh my gosh
Oh my oh my
Oh my oh my gosh
Oh my oh my
Oh my oh my gosh]

            
            
Suggest correction
Creating personal tab
Creating personal tab
You can edit any tab online and save it as your Personal.

You can edit, replace or remove any tab part or add personal notes – all changes will be seen only by you.

Personal tabs can be accessed anytime from any device, even offline.
Learn more »
Give kudos to tab author, rate the tab!
1 2 3 4 5
comments
print report bad tab
guest
You may want to rate the tab now too:
select rating
Wanna post a correction for this tab? Suggest correction