Oops, an error
Loading. Please wait.

Rock It bass

version 2
version 2

Whole song

10,284 views 6 this week
1 commentread comment
1 2 3 4 5
x 7
add to favorites
×
Save as Personal and add changes to this tab that will be seen only by you. Learn more ›
×
You can save this tab as Personal to edit and correct it or add notes. All changes will be seen only by you. Learn more »
launch autoscroll
font size
0
reset
guitar tuner
edit
Autoscroll
slow
fast
+/-
esc
set tempo
stop
Author
Difficulty
Artist: Little Red
Song: Rock It
Album: Midnight Remember
Tabbed by: J Goddard (joestar636@hotmail.com)

Verse-
G|--------------------------------------|
D|--------------------------------------| Repeat x 7
A|-8-8-8-8----7-8----------------5-7/8--|
E|---------10------5/6-6-6-6-6-8--------|

Repeat x 7

Chorus-
For the chorus you can play either the melody or an alternate bass line. They both sound
so it's really your choice as to which one you use.

The Melody:

G|-------------------------------------------------------------------|
D|-----------7-10-12~------12-12-10-10-7----7~------7-10-7-----------|
A|-8-8-10-10-----------------------------10----------------10-8-8-8~-|
E|-------------------------------------------------------------------|

G|-----------------------|
D|-----------7-----------|
A|-8-8-10-10---10-8~-----|
E|-----------------------|

Or

Alternate Bass Line:

G|----------------------------------------------|
D|-----------7---------------------------7------|  Repeat x 2
A|-8-8-10-10---3-5-5-5-5~-----5-5-7-7-8---8~----|
E|----------------------------------------------|

Bridge:
The bridge is really short (4 bars) and only appears after the first chorus.

G|------------------------------------------------------------------|
D|------------------------------------------------------------------|
A|-5-5-5-5-5-5-3-3-----------------5-5-5-5-5-5-3-3------------------|
E|-----------------1-1-1-1-1-1-1/3----------------1-1-1-1-1-1-1/3---|

After that there is one more verse and then repeat the chorus part until the end.

And thats it! This was my first bass tab so I realise that I may have gotten some of it
wrong but whatever, im better than you so who cares? Seriously though, if you have any
or comments or whatever or if you want to tell me where I went wrong and how I can 
my self as a person, feel free to e-mail me on the adress above.

            
            
Suggest correction
Creating personal tab
Creating personal tab
You can edit any tab online and save it as your Personal.

You can edit, replace or remove any tab part or add personal notes – all changes will be seen only by you.

Personal tabs can be accessed anytime from any device, even offline.
Learn more »
comments
print report bad tab
1 comment total.
+1 reply
tbate54 10 Jan 10, 2014 02:07 AM

Nice work brother. I like it.

guest
You may want to rate the tab now too:
select rating
Wanna post a correction for this tab? Suggest correction