Oops, an error
Loading. Please wait.

What Might Have Been bass

version 1
version 1

Whole song

Interactive

88 views 1 this week
no commentswrite comment
1 2 3 4 5
3 more votes to show rating
add to favorites
×
Save as Personal and add changes to this tab that will be seen only by you. Learn more ›
×
You can save this tab as Personal to edit and correct it or add notes. All changes will be seen only by you. Learn more »
launch autoscroll
font size
0
reset
guitar tuner
edit
Autoscroll
slow
fast
+/-
esc
set tempo
stop
Author
Difficulty
Little Texas – What Might Have Been

Intro (rest)

Verse (rest)
Sure I think about you now and then
But it’s been a long, long time
I’ve got a good life now, I’ve moved on
So when you cross my mind
G|-----------------------------------|
D|-----------------------------------|
A|-----------------------0--2-3------|
E|-----------------------------------|

Chorus
I try not to think about        what might have been
G|--------------------------|-----------------------------|
D|--------------------------|---2-------------------------|
A|--(hold the C)------------|----3------------------------|
E|--------------------------|--------3---------------3-2--|

'Cause that was then         and we have taken different roads
G|-------------------------|----------------------------------------|
D|-------------------------|----------------------------------------|
A|-------------------0-2-3-|-------------5---------------0----2---3-|
E|-----0-------------------|----------------------------------------|

We can't go back again         there's no use giving in
G|---------------------|---------------------------------------|
D|---------------------|--2------------------------------------|
A|--(hold the C)-------|---3---2---------------------------2—0-|
E|---------------------|---------------------------------3-----|

And there's no way to know          what might have been
G|-------------------------|--------------------------------|
D|-------------------------|--------------------------------|
A|----------2---------5----|-0-2-3--------------------------|
E|-------------------------|------------------------------3-|

Intro
A|---------------------3----|
E|-3-(hold)---------------3-|

Verse 
E|---G--(throughout verse)--|
We could sit and talk about this all night long
And wonder why we didn't last
Yes they might be the best days
We will ever know
But we'll have to leave them in the past
G|-------------------------------------------------|
D|-------------------------------------------------|
A|----------------------------------5-----0--2--3--|
E|-------------------------------------------------|

Chorus

Bridge
           That same old look in your eyes    it's a beautiful night
G|-----------------------------------------------|------------------------------|
D|-----------------------------------------------|------------------------------|
A|-------------------------------------------02--|---------2---2---------3------|
E|--3---32--0---------------0----0----------3----|------------------------------|

  I'm so tempted to stay            but too much time has gone by
G|--------------------------------|----------------------------------------|
D|--------------------------------|----------------------------------------|
A|--------3---------------5-------|----------------------------------02----|
E|----------------------------32--|-0------------------0----0-------3------|


We should just say goodbye      and turn and walk away
G|------------------------------|------------------------------------9-7--|-----------|
D|------------------------------|--------------------------------7-9------|-----------|
A|---------2-----2----------3---|-----------------------5-----------------|--0--2--3--|
E|------------------------------|-----------------------------------------|-----------|

Chorus

Outro
          No we'll never know                 what might have been
G|-----------------------------|-----------------------------------|---------------------------||
D|-----------------------------|-----------------------------------|---------------------5-----||
A|--2-0------2-----------5-----|-0-2-3-(pause)---------------------|-----------------3/5-------||
E|-----------------------------|-----------------------------------|-(pause)--3----------------||



            
            
Suggest correction
Creating personal tab
Creating personal tab
You can edit any tab online and save it as your Personal.

You can edit, replace or remove any tab part or add personal notes – all changes will be seen only by you.

Personal tabs can be accessed anytime from any device, even offline.
Learn more »
Give kudos to tab author, rate the tab!
1 2 3 4 5
comments
print report bad tab
guest
You may want to rate the tab now too:
select rating
Wanna post a correction for this tab? Suggest correction