Oops, an error
Loading. Please wait.

Gas Hed Goes West bass

by Live
392 views 3 this week
1 commentread comment
1 2 3 4 5
2 more votes to show rating
add to favorites
×
Save as Personal and add changes to this tab that will be seen only by you. Learn more ›
×
You can save this tab as Personal to edit and correct it or add notes. All changes will be seen only by you. Learn more »
launch autoscroll
font size
0
reset
guitar tuner
edit
Autoscroll
slow
fast
+/-
esc
set tempo
stop
Title: Gas Hed Goes West
Artist: Live
Album: Secret Samadhi
Tabbed by: Renato Gehringer
E-mail: 
                

            
            
Suggest correction
Creating personal tab
Creating personal tab
You can edit any tab online and save it as your Personal.

You can edit, replace or remove any tab part or add personal notes – all changes will be seen only by you.

Personal tabs can be accessed anytime from any device, even offline.
Learn more »
Give kudos to tab author, rate the tab!
1 2 3 4 5
comments
print report bad tab
1 comment total.
0 reply
auditek 146 Jun 17, 2007 12:25 AM

Great tab. I think maybe you need to change these 2 parts ?
2nd part of riff
G|-----------------------------------------------------------|
D|-----------------------------------------------------------|
A|----------4-444--------------------------------------------|
E|-2--222-----------4-444------6-666-------------------------|
"a gas head marches on..."
G|-----------------------------------------------------------|
D|--4--3--1--3-1--------4--3--1--3--x------------------------|
A|----------------111---------------1------------------------|
E|-----------------------------------------------------------|

guest
Wanna post a correction for this tab? Suggest correction