Oops, an error
Loading. Please wait.

Lighting Crashes tab

by Live
16,629 views 21 this week
1 commentread comment
1 2 3 4 5
x 7
add to favorites
×
Save as Personal and add changes to this tab that will be seen only by you. Learn more ›
×
You can save this tab as Personal to edit and correct it or add notes. All changes will be seen only by you. Learn more »
launch autoscroll
font size
0
reset
how to read this tab
guitar tuner
edit
Autoscroll
slow
fast
+/-
esc
set tempo
stop
Author
Unregistered
[Intro]

e|-3------3-------------3---------------------3------3--------------3-----|
B|-1---x--1-----1--x-x--3----x--3-----3----x--3---x--3-----x--------3---x-|
G|-2---x--2-----2--x-x--5----x--5-----5--x-x--4---x--4-----x--------4---x-|
D|-3---x--3-----3--x-x--5----x--5-----5--x----5---x--5-----x--------5---x-|
A|-3------3-----3-------3-------3-----3--0----5------5--------x-----5-----|
E|-1------1-----1-----------------------------3------3----------0---3-----|

e|-3-----3------|
B|-3-----3--0---|
G|-4-----4--x-x-|
D|-5-----5--x-x-|
A|-5-----5--x-x-|
E|-3-----3--0-0-|


[Verses]

e|-3------3-------------3--------------------3--------------3-------3-|
B|-1---x--1-----1--x-x--3---x--3-----3----x--3-----x--------3----x--3-|
G|-2---x--2-----2--x-x--5---x--5-----5--x-x--4-----x--------4----x--4-|
D|-3---x--3-----3--x-x--5---x--5-----5--x----5-----x--------5----x--5-|
A|-3------3-----3-------3------3-----3--0----5--------x-----5-------5-|
E|-1------1-----1----------------------------3----------0---3-------3-|

e|-3------|
B|-3--0---|
G|-4--x-x-|
D|-5--x-x-|
A|-5--x-x-|
E|-3--0-0-|


[Choruses]

e|-3-----3-----3-------------3-----3-----3--------------3-------3------|
B|-1-----1-----1-----x---x---3-----3-----3--------------3-------3------|
G|-2-----2-----2-----x---x---5-----5-----5-----x---x----4-------4------|
D|-3-----3-----3-----x---x---5-----5-----5-----x---x----5-------5------|
A|-3-----3-----3-------------3-----3-----3-----x---x----5-------5----5-|
E|-1-----1-----1-------------------------------0---0----3-------3----3-|

e|------------3-----------|
B|------------3-----x---x-|
G|------------4-----x---x-|
D|------------5-----x---x-|
A|-5-----5----5-----------|
E|-3-----3----3-----------|



************************************

| x  Dead note

************************************

            
            
Suggest correction
Creating personal tab
Creating personal tab
You can edit any tab online and save it as your Personal.

You can edit, replace or remove any tab part or add personal notes – all changes will be seen only by you.

Personal tabs can be accessed anytime from any device, even offline.
Learn more »
comments
print report bad tab
1 comment total.
0 reply
A7X_Fan_gp 823 Dec 25, 2015 03:29 PM

You need to always give tuning information please...

guest
Wanna post a correction for this tab? Suggest correction