Oops, an error
Loading. Please wait.

All For You tab

1,627 views 6 this week
no commentswrite comment
1 2 3 4 5
x 3
add to favorites
×
Save as Personal and add changes to this tab that will be seen only by you. Learn more ›
×
You can save this tab as Personal to edit and correct it or add notes. All changes will be seen only by you. Learn more »
launch autoscroll
font size
0
reset
how to read this tab
guitar tuner
edit
Autoscroll
slow
fast
+/-
esc
set tempo
stop
Author
Difficulty
All For You    transcribed by: Rodino Sim of SFC CC3
Words and Music by: Dexter Suban
Intro

Guitar 1
Riff 1
E|-------------------------------------------------------------9-9-9-10p9----------| 
B|-10-10-10-9-9-9-5-5-5-10-10-10-9-9-9-12-12-12--10-10-10-9-9-9-----------12-12-12-| 
G|---------------------------------------------------------------------------------| 
D|---------------------------------------------------------------------------------| 
A|---------------------------------------------------------------------------------|
E|---------------------------------------------------------------------------------|

Riff 2
E|------------------------------------------------------------9-9-9-10p9----|
B|-10-10-10-9-9-9-5-5-5-10-10-10-9-9-9-12-12-12—10-10-10-9-9-9-----------12-|
G|--------------------------------------------------------------------------|
D|--------------------------------------------------------------------------|
A|--------------------------------------------------------------------------|
E|--------------------------------------------------------------------------|
then
E|-----------------|
B|-101010-999-9s7v-|
G|-----------------|
D|-----------------|
A|-----------------|
E|-----------------|

Guitar 2
E|---------------------------------|----------------------|--------------|----------|
B|---------------------------------|----------------------|--------------|----------|
G|---------------------------------|----------------------|------6v--6v--|-99999999-|
D|---------------------------------|----------------------|----76--76-9--|-99999999-| 2x
A|-----4/5-----4/5-----4/5-----4/5-|-999--777-444-555-777-|-00-----------|-77777777-|
E|-2-2-----2-2-----2-2-----2-2-----|----------------------|--------------|----------|
PM|. .     . .     . .     . .       ...  ... ... ... ...   ..            ........|

Verse

Guitar 1
(Enters at “Your love it helped me overcome”)
E|------------------------------------------| 
B|------------------------------------------| 
G|-----------77777777------------99999999---| 
D|-44444444--77777777--77777777--99999999---| 
A|-44444444--55555555--77777777--77777777---|
E|-22222222------------55555555-------------|

Guitar 2
(Enters at “Your love it helped me overcome”)
Guitar 2
E|---------------------------------|----------------------|--------------|----------|
B|---------------------------------|----------------------|--------------|----------|
G|---------------------------------|----------------------|------6v--6v--|-99999999-|
D|---------------------------------|----------------------|----76--76-9--|-99999999-| 2x
A|-----4/5-----4/5-----4/5-----4/5-|-999--777-444-555-777-|-00-----------|-77777777-|
E|-2-2-----2-2-----2-2-----2-2-----|----------------------|--------------|----------|
PM|. .     . .     . .     . .       ...  ... ... ... ...   ..            ........|

Refrain

Guitar 1 
E|---------9-9-9------7-7-7-|------------------------------|
B|--------------------------|--10-10-10-9-9-9-5-5-5-5-5-5--|
G|-11-9-11-------9-7-9------|------------------------------|
D|--------------------------|------------------------------|
A|--------------------------|------------------------------|
E|--------------------------|------------------------------|
then
E|---------9-9-9------7-7-7-|------------------------------------|
B|--------------------------|--10-10-10-9-9-9-12-12-12-12-12-12--| 
G|-11-9-11-------9-7-9------|------------------------------------| 
D|--------------------------|------------------------------------|
A|--------------------------|------------------------------------| 
E|--------------------------|------------------------------------|
then
E|---------9-9-9------7-7-7-|---------------|
B|--------------------------|--10-10-10-9v--| 
G|-11-9-11-------9-7-9------|---------------| 
D|--------------------------|---------------|
A|--------------------------|---------------| 
E|--------------------------|---------------|
“I choose the path you lived”
E|-------------------------| 
B|-------------------------| 
G|-11-9--7777777777777777--| 
D|-11-9--7777777777777777--| 
A|-9--7--5555555555555555--|
E|-------------------------|

Guitar 2 
E|---------5-5-5------4-4-4-|---------------------------|
B|--------------------------|--7-7-7-5-5-5-2-2-2-2-2-2--| 
G|--6-4-6--------4-2-4------|---------------------------| 
D|--------------------------|---------------------------|
A|--------------------------|---------------------------| 
E|--------------------------|---------------------------|
then  
E|---------5-5-5------4-4-4-|---------------------------------|
B|--------------------------|--7-7-7-5-5-5-2-2-2-3-3-3-5-5-5--| 
G|--6-4-6--------4-2-4------|---------------------------------| 
D|--------------------------|---------------------------------|
A|--------------------------|---------------------------------| 
E|--------------------------|---------------------------------|
then
E|---------5-5-5------4-4-4-|------------|
B|--------------------------|--7-7-7-5v--| 
G|--6-4-6--------4-2-4------|------------| 
D|--------------------------|------------|
A|--------------------------|------------| 
E|--------------------------|------------|
“I choose the path you lived”
E|-------------------------| 
B|-------------------------| 
G|-11-9--7777777777777777--| 
D|-11-9--7777777777777777--| 
A|-9--7--5555555555555555--|
E|-------------------------|

Chorus

Guitar 1
E|------------------------------------------| 
B|------------------------------------------| 
G|-----------77777777------------99999999---| 
D|-77777777--77777777--44444444--99999999---| 
A|-77777777--55555555--44444444--77777777---|
E|-55555555------------22222222-------------|
then
E|----------------------------------------------| 
B|------------------------------12b-13b-15b-17b-| 
G|-----------77777777---------------------------| 
D|-77777777--77777777--44444444-----------------| 
A|-77777777--55555555--44444444-----------------|
E|-55555555------------22222222-----------------|

Guitar 2
E|------------------------------------------| 
B|------------------------------------------| 
G|-22222222--77777777------------99999999---| 
D|-22222222--77777777--44444444--99999999---| 2x
A|-00000000--55555555--44444444--77777777---|
E|---------------------22222222-------------|

2nd Intro

Guitar 1
E|--------------------------------------------------------9-9-9-10p9----|
B|-10-10-10-9-9-9-5-5-5-10-10-10-9-9-9-12-12-12-101010-999-----------12-|
G|----------------------------------------------------------------------|
D|----------------------------------------------------------------------|
A|----------------------------------------------------------------------|
E|----------------------------------------------------------------------|
then
E|-----------------|
B|-101010-999-9s7v-|
G|-----------------|
D|-----------------|
A|-----------------|
E|-----------------|

Guitar 2
E|---------------------------------|----------------------|--------------|----------|
B|---------------------------------|----------------------|--------------|----------|
G|---------------------------------|----------------------|------6v--6v--|-99999999-|
D|---------------------------------|----------------------|----76--76-9--|-99999999-| 2x
A|-----4/5-----4/5-----4/5-----4/5-|-999--777-444-555-777-|-00-----------|-77777777-|
E|-2-2-----2-2-----2-2-----2-2-----|----------------------|--------------|----------|
PM|. .     . .     . .     . .       ...  ... ... ... ...   ..            ........|

Repeat Verse, Refrain and Chorus




Instrumental
Guitar 1
E|-12-12-12-9-9-9-10-10-10---------------------|--------------------------------|
B|-------------------------9-9-9-10-10-10------|--------------------------------|
G|---------------------------------------9-9-9-|-6-6-6-7-7-7-----9-9-9-11-11-11-| 
D|---------------------------------------------|------------7-7-7---------------| 
A|---------------------------------------------|--------------------------------|
E|---------------------------------------------|--------------------------------|
then
E|--------------121212-9999s17-| 
B|-121212-101010---------------| 
G|-----------------------------|
D|-----------------------------|
A|-----------------------------|
E|-----------------------------|
Then
E|-16h17p16-------------------------------------| 
B|----------19-17-15-14-15-17-------------------| 
G|---------------------------13h14-16b-------14-| 
D|-------------------------------------14h16----| 
A|----------------------------------------------|
E|----------------------------------------------|
Then
E|----------------------------------------|-9-9-9-10-10-10-9-9-9-12-12-12-10p9-|
B|-10-10-10-9-9-9-5-5-5-12-12-12-10-10-10-|------------------------------------|
G|----------------------------------------|------------------------------------| 
D|----------------------------------------|------------------------------------| 
A|----------------------------------------|------------------------------------|
E|----------------------------------------|------------------------------------|
Then
E|------------------------------------|
B|-10-10-10-10-10-10-9-9-9-9-9-9-9s7v-|
G|------------------------------------|
D|------------------------------------|
A|------------------------------------|
E|------------------------------------|

Guitar 2
E|---------------------------------|----------------------|--------------|----------|
B|---------------------------------|----------------------|--------------|----------|
G|---------------------------------|----------------------|------6v--6v--|-99999999-|
D|---------------------------------|----------------------|----76--76-9--|-99999999-| 2x
A|-----4/5-----4/5-----4/5-----4/5-|-999--777-444-555-777-|-00-----------|-77777777-|
E|-2-2-----2-2-----2-2-----2-2-----|----------------------|--------------|----------|
PM|. .     . .     . .     . .       ...  ... ... ... ...   ..            ........|

Bridge

Guitar 1
(Enters at 2nd “My God You lived”)
E|------------------------------------------|    |-------|
B|------------------------------------------|    |-------| 
G|-----------77777777------------99999999---|    |-------|
D|-44444444--77777777--77777777--99999999---|2x |---9---|let it ring
A|-44444444--55555555--77777777--77777777---|    |---9---|
E|-22222222------------55555555-------------|    |---7---|




Guitar 2 (medyo mahina lang yung strum)
E|---------------------------------|----------------------|-------------|----------|
B|---------------------------------|----------------------|-------------|----------|
G|---------------------------------|----------------------|-------------|-99999999-|
D|---------------------------------|----------------------|-------------|-99999999-|2x 
A|-----4/5-----4/5-----4/5-----4/5-|-999--777-444-555-777-|--77777777---|-77777777-|
E|-2-2-----2-2-----2-2-----2-2-----|----------------------|--55555555---|----------|
PM|. .     . .     . .     . .       ...  ... ... ... ...    ........     ........|
then
(malakas na unng strum)
E|---------------------------------|----------------------|--------------|----------|
B|---------------------------------|----------------------|--------------|----------|
G|---------------------------------|----------------------|------6v--6v--|-99999999-|
D|---------------------------------|----------------------|----76--76-9--|-99999999-| 2x
A|-----4/5-----4/5-----4/5-----4/5-|-999--777-444-555-777-|-00-----------|-77777777-|
E|-2-2-----2-2-----2-2-----2-2-----|----------------------|--------------|----------|
PM|. .     . .     . .     . .       ...  ... ... ... ...   ..            ........|
E|-------|
B|-------|
G|-------|
D|---9---|let it ring
A|---9---|
E|---7---|

Repeat Refrain and 2x Chorus(Bagsak lang yung unang Chords ng Chorus)

Outro
Guitar 1
Riff 1
E|-------------------------------------------------------------9-9-9-10p9----------| 
B|-10-10-10-9-9-9-5-5-5-10-10-10-9-9-9-12-12-12--10-10-10-9-9-9-----------12-12-12-| 
G|---------------------------------------------------------------------------------| 
D|---------------------------------------------------------------------------------| 
A|---------------------------------------------------------------------------------|
E|---------------------------------------------------------------------------------|

Riff 2
E|------------------------------------------------------------9-9-9-10p9----|
B|-10-10-10-9-9-9-5-5-5-10-10-10-9-9-9-12-12-12—10-10-10-9-9-9-----------12-|
G|--------------------------------------------------------------------------|
D|--------------------------------------------------------------------------|
A|--------------------------------------------------------------------------|
E|--------------------------------------------------------------------------|
then
E|---------------------|
B|-10-10-10-12-10-9s7v-|
G|---------------------|
D|---------------------|
A|---------------------| 
E|---------------------|

Guitar 2
E|---------------------------------|----------------------|--------------|----------|
B|---------------------------------|----------------------|--------------|----------|
G|---------------------------------|----------------------|------6v--6v--|-99999999-|
D|---------------------------------|----------------------|----76--76-9--|-99999999-| 2x
A|-----4/5-----4/5-----4/5-----4/5-|-999--777-444-555-777-|-00-----------|-77777777-|
E|-2-2-----2-2-----2-2-----2-2-----|----------------------|--------------|----------|
PM|. .     . .     . .     . .       ...  ... ... ... ...   ..            ........|

Tab legend:Slide- sHammer- hPull-off – pVibrato- v  Palm Mute- PM|....|

            
            
Suggest correction
Creating personal tab
Creating personal tab
You can edit any tab online and save it as your Personal.

You can edit, replace or remove any tab part or add personal notes – all changes will be seen only by you.

Personal tabs can be accessed anytime from any device, even offline.
Learn more »
Give kudos to tab author, rate the tab!
1 2 3 4 5
comments
print report bad tab
guest
You may want to rate the tab now too:
select rating
Wanna post a correction for this tab? Suggest correction