Oops, an error
Loading. Please wait.

Reaching tab

925 views 12 this week
no commentswrite comment
1 2 3 4 5
3 more votes to show rating
add to favorites
×
Save as Personal and add changes to this tab that will be seen only by you. Learn more ›
×
You can save this tab as Personal to edit and correct it or add notes. All changes will be seen only by you. Learn more »
launch autoscroll
font size
0
reset
how to read this tab
guitar tuner
edit
Autoscroll
slow
fast
+/-
esc
set tempo
stop
To play the Refrain, use this: 
https://www.instagram.com/p/BPQxnQjBCHY/?taken-by=_chincemercado

[Intro]
(The intro is played with a quarter + dotted eighth note delay, if you don't have both, just 
use a dotted eighth)
e|--9--7---------------------|--------9--7------------------------------------|
B|-------9-------------------|-------------9----------------------------------|
G|-----------9--9-/11--------|-----------------9------------------------------|
D|---------------------------|---------------------9--------------------------|
A|---------------------------|------------------------------------------------|
E|---------------------------|------------------------------------------------|

[Verse]
(Just like the intro, the verse still has the 1/4 + dotted 1/8th delay)
e|--9--7---------------------|--------9--7------------------------------------|
B|-------9-------------------|-------------9----------------------------------|
G|-----------9--9-/11--------|-----------------9--8---------------------------|
D|---------------------------|------------------------------------------------|
A|---------------------------|------------------------------------------------|
E|---------------------------|------------------------------------------------|

[Refrain]
(In the track you just arpeggiate the chords in a higher register. But this is what I play, its very similar
to The Stand by Hillsong with the ascending and descending notes.)
e|----------------------------------------|--------------------------------------|
B|-----7--------9--------7-----7h9p7--7---|------9--------12---------------------|
G|--/9------/11-------\9-----9-------9----|--/11------/13-----14--\13--\11--\9---|
D|----------------------------------------|--------------------------------------|
A|----------------------------------------|--------------------------------------|
E|----------------------------------------|--------------------------------------|

[Chorus]
(Arpeggiate the E F#m and A in a higher register, just play around with the chords)
     E    F#m     A
e|---x----x-------0----------------------------------------------------------|
B|---7----7-------0----------------------------------------------------------|
G|---9----9-------9----------------------------------------------------------|
D|---9----7-------7----------------------------------------------------------|
A|---7----9-------0----------------------------------------------------------|
E|---x----x-------x----------------------------------------------------------|

(If you want a full tab on how I arpeggiate here you go!)
e|-------------------|----------------|----------------|------------------------|
B|---------7---------|------7---------|------7---------|------7-----------------|
G|-------9---9-------|----9---9-------|----9---9-------|----9---9---------------|
D|-----9-------9---9-|--7-------7---7-|--7-------7---7-|--7-------7-------------|
A|---7-----------7---|9-----------9---|0-----------0---|0-----------0-----------|
E|-------------------|----------------|----------------|------------------------|

[Instrumental]
(Same thing as last time, but add in the chord in between.)
e|-x--x----9--7--------------------|-----x----9--7------------------------------------|
B|-x--x----------9-----------------|-----x---------9----------------------------------|
G|-9--9--------------9--9-/11------|-----9-------------9------------------------------|
D|-7--9----------------------------|-----9-----------------9--------------------------|
A|-9--7----------------------------|-----7--------------------------------------------|
E|-x--x----------------------------|-----x--------------------------------------------|

[Verse]
(Just add in the chords in between the lead parts just like the intro)
e|--9--7-----------------------|------9--7------------------------------------|
B|-------9---------------------|-----------9----------------------------------|
G|-----------9--9-/11----------|---------------9--8---------------------------|
D|-----------------------------|----------------------------------------------|
A|-----------------------------|----------------------------------------------|
E|-----------------------------|----------------------------------------------|

[Refrain]
(Same pattern as before, just maybe add a bit of overdrive/delay/reverb depending on what sound
youre looking for)
e|---------------------------------------|---------------------------------------|
B|-----7--------9--------7-----7h9p7--7--|-------9--------12---------------------|
G|--/9------/11-------\9-----9-------9---|---/11------/13-----14--\13--\11--\9---|
D|---------------------------------------|---------------------------------------|
A|---------------------------------------|---------------------------------------|
E|---------------------------------------|---------------------------------------|

[Chorus]
(Just strum the chords along with the song)
     E    F#m     A
e|---0----0-------0----------------------------------------------------------|
B|---0----0-------0----------------------------------------------------------|
G|---9----9-------9----------------------------------------------------------|
D|---9----7-------7----------------------------------------------------------|
A|---7----9-------0----------------------------------------------------------|
E|---x----x-------x----------------------------------------------------------|

[Chorus 2]
(Just strum the chords along with the song)
     F#m    E     A
e|---0----0-------0----------------------------------------------------------|
B|---0----0-------0----------------------------------------------------------|
G|---9----9-------9----------------------------------------------------------|
D|---7----9-------7----------------------------------------------------------|
A|---9----7-------0----------------------------------------------------------|
E|---x----x-------x----------------------------------------------------------|

[Instrumental/Solo]
e|---------------------------------------------|-----------------------------------|
B|--/10--10---9-9-9---5-5--/12--12~---12-12\10-|--10--10---9-9-9---5-5---/12--12---|
G|---------------------------------------------|-----------------------------------|
D|---------------------------------------------|-----------------------------------|
A|---------------------------------------------|-----------------------------------|
E|---------------------------------------------|-----------------------------------|

e|---------12h14---/16-16---14-14-14---12-12---12/19-|-19---19-\16-16---14-14-14---12--12--------|
B|--12h14--------------------------------------------|--------------------------------------12---|
G|---------------------------------------------------|-------------------------------------------|
D|---------------------------------------------------|-------------------------------------------|
A|---------------------------------------------------|-------------------------------------------|
E|---------------------------------------------------|-------------------------------------------|

[Silence]
So with a dotted eighth or a quarter note dotted eighth delay you play this palm muted
e|-----------7------|-----------7------|----------7--------------------------------|
B|---7---9-------9--|---7---9-------9--|---7---9--9--------------------------------|
G|-9---9---9---9----|-9---9---9---9----|-9---9----9--------------------------------|
D|------------------|------------------|-------------------------------------------|
A|------------------|------------------|-------------------------------------------|
E|------------------|------------------|-------------------------------------------|
PM . . . . . . . .    . . . . . . . .   . . . .  

[Bridge]
(Another arpeggiation! Just play around with the chords shown below, or just play the higher register
chords of B, C#m and A. I can't really tab this out because I always play it different, but just)
     B     C#m     A
e|---9-----9-------9-------------------------------------|
B|---12----12------12------------------------------------|
G|---11----9-------9-------------------------------------|
D|---9-----11------9-------------------------------------|
A|---x-----x-------x-------------------------------------|
E|---x-----x-------x-------------------------------------|

[Chorus]
(Play the [Silence] part on the 2nd half of the chorus "I'm seeking, I'm seeking".
And when the chorus repeats just play the chords)
e|-----------7------|-----------7------|----------7--------------------------------|
B|---7---9-------9--|---7---9-------9--|---7---9--9--------------------------------|
G|-9---9---9---9----|-9---9---9---9----|-9---9----9--------------------------------|
D|------------------|------------------|-------------------------------------------|
A|------------------|------------------|-------------------------------------------|
E|------------------|------------------|-------------------------------------------|
PM . . . . . . . .    . . . . . . . .   . . . .  

     E    F#m     A
e|---0----0-------0----------------------------------------------------------|
B|---0----0-------0----------------------------------------------------------|
G|---9----9-------9----------------------------------------------------------|
D|---9----7-------7----------------------------------------------------------|
A|---7----9-------0----------------------------------------------------------|
E|---x----x-------x----------------------------------------------------------|

[Chorus 2]
(Just strum the chords along with the song)
     F#m    E     A
e|---0----0-------0----------------------------------------------------------|
B|---0----0-------0----------------------------------------------------------|
G|---9----9-------9----------------------------------------------------------|
D|---7----9-------7----------------------------------------------------------|
A|---9----7-------0----------------------------------------------------------|
E|---x----x-------x----------------------------------------------------------|

[Outro/Solo]
(Same solo as before but just cut in half)
e|----------------------------------|---------12h14---/16-16---14-14-14---12-12------|
B|--/10--10---9-9-9---5-5--/12--12~-|--12h14-------------------------------------12--|
G|----------------------------------|------------------------------------------------|
D|----------------------------------|------------------------------------------------|
A|----------------------------------|------------------------------------------------|
E|----------------------------------|------------------------------------------------|

[Ending] 
e|-----------7------|-----------7------|----------7--------------------------------|
B|---7---9-------9--|---7---9-------9--|---7---9--9--------------------------------|
G|-9---9---9---9----|-9---9---9---9----|-9---9----9--------------------------------|
D|------------------|------------------|-------------------------------------------|
A|------------------|------------------|-------------------------------------------|
E|------------------|------------------|-------------------------------------------|
PM . . . . . . . .    . . . . . . . .   . . . .


************************************

| /   Slide up
| h   Hammer-on
| p   Pull-off
| \   Slide down
| x   Dead note
| ~   Vibrato
| PM  Palm mute

************************************

            
            
Suggest correction
Creating personal tab
Creating personal tab
You can edit any tab online and save it as your Personal.

You can edit, replace or remove any tab part or add personal notes – all changes will be seen only by you.

Personal tabs can be accessed anytime from any device, even offline.
Learn more »
Give kudos to tab author, rate the tab!
1 2 3 4 5
comments
print report bad tab
guest
You may want to rate the tab now too:
select rating
Wanna post a correction for this tab? Suggest correction