Oops, an error
Loading. Please wait.
We have an official Cult Of Personality tab made by UG professional guitarists. Check out the tab »
×

Cult Of Personality bass

version 2
version 2

Whole song

  • More details, added fully written structure and pr... Show more

Interactive

430 views 9 this week
no commentswrite comment
1 2 3 4 5
1 last vote to show rating
add to favorites
×
Save as Personal and add changes to this tab that will be seen only by you. Learn more ›
×
You can save this tab as Personal to edit and correct it or add notes. All changes will be seen only by you. Learn more »
launch autoscroll
font size
0
reset
guitar tuner
backing track
0:00
0:00
edit
Autoscroll
slow
fast
+/-
esc
set tempo
stop
Author
Difficulty
About this tab version
More details, added fully written structure and precise rhythm , corrected some parts. Was this info helpful? Yes No
Artist : Living Colour
Album : Vivid
Song : Cult Of Personality

The Choruses were quite hard to catch, please be tolerant ;)

[Intro] 0:12
 4/4
G|--------------------------------|--------------------------------|
D|--3p0---2-----3p0---2-2r--------|--------------------------------|
A|--------------------------------|--------------------------------|
E|3-----3-----3-----3-------------|3-1-1h3-0---3-1-1h3-0r----------|
  1   +   2   +   3   +   4   +    1   +   2   +   3   +   4   +
                                  3/4
G|--------------------------------|--------------2---------|
D|--------------------------------|--3p0---5-3-0---3p0-----|
A|--------------------------------|--------------------3-2-|
E|3-1-1h3-0---3-1-1h3-0-0r--------|3-----3-----------------|
  1   +   2   +   3   +   4   +    1   +   2   +   3   +   
 4/4
G|--------------------------------|--------------------------------|
D|--------------------------------|--------------------------------|(I think the intro riff is a little bit 
A|--------------------------------|--------------------------------| off but sounds nice to stay in low notes)
E|3-1-1h3-0---3-1-1h3-0r----------|3-1-1h3-0---3-1-1h3-0-0r--------|
  1   +   2   +   3   +   4   +    1   +   2   +   3   +   4   +
 

[Verse]
   
G|--------------------------------|--------------------------------|--------------------------------|
D|--3p0---2-----3p0---2r----------|--3p0---2-----3p0---2-2r--------|--------------------------------|
A|--------------------------------|--------------------------------|1-------------------------------|
E|3-----3-----3-----3-------------|3-----3-----3-----3-------------|----------------1---------------|
  1   +   2   +   3   +   4   +    1   +   2   +   3   +   4   +    1   +   2   +   3   +   4   +   

G|--------------------------------|--------------------------------|
D|--3p0---2-----3p0---2r----------|--3p0---2-----3p0---2-2r--------|
A|--------------------------------|--------------------------------| x2
E|3-----3-----3-----3-------------|3-----3-----3-----3-------------|
  1   +   2   +   3   +   4   +    1   +   2   +   3   +   4   +   

G|--------------------------------|--------------------------------|
D|--3p0---2-----3p0---2r----------|--------------------------------|
A|--------------------------------|1---------------3---------------|
E|3-----3-----3-----3-------------|--------------------------------|
  1   +   2   +   3   +   4   +    1   +   2   +   3   +   4   +
    
G|--------------------------------|--------------------------------|
D|--3p0---2-----3p0---2r----------|--3p0---2-----3p0---2-2r--------|
A|--------------------------------|--------------------------------|
E|3-----3-----3-----3-------------|3-----3-----3-----3-------------|
  1   +   2   +   3   +   4   +    1   +   2   +   3   +   4   +   

G|--------------------------------|--------------------------------|
D|--3p0---2-----3p0---2r----------|--------------------------------|
A|--------------------------------|1-------------------------------|
E|3-----3-----3-----3-------------|----------------1---------------|
  1   +   2   +   3   +   4   +    1   +   2   +   3   +   4   +

G|--------------------------------|--------------------------------|
D|--3p0---2-----3p0---2r----------|--------------------------------|
A|--------------------------------|1---------------3---------------|
E|3-----3-----3-----3-------------|--------------------------------|
  1   +   2   +   3   +   4   +    1   +   2   +   3   +   4   + 
 

[Bridge]
 3/4
G|--------------2---------|--------2-----5-4-------|
D|--3-0---5-3-0---3-0-----|--3-0-----3-0-----5-3---|
A|--------------------3-2-|----------------------5-| x2
E|3-----3-----------------|3-----3-----------------|
  1   +   2   +   3   +    1   +   2   +   3   +    


[Chorus]
 4/4
G|--------------------------------|--------------------------------|
D|--------------------------------|--------------------------------|
A|1-------1-------------------0-1-|3-------3---------------5-3---0/|
E|------------1-------1---1-1-----|------------3-------3-------3---|
  1   +   2   +   3   +   4   +    1   +   2   +   3   +   4   +
    
G|--------------------------------|--------------------------------|
D|--------7---------------7-------|------------------------5-5-3---|
A|5-----------5-------5-----------|------------3-------3---------5-|
E|--------------------------------|1-------1-----------------------|
  1   +   2   +   3   +   4   +    1   +   2   +   3   +   4   +  

G|--------------------------------|--------------------------------|
D|--------------------------------|----2---5-----------------------|
A|1-------1-------------------0-1-|3---------------------------2-3-|
E|------------1-------1---1-1-----|------------3-------3---3-3-----|
  1   +   2   +   3   +   4   +    1   +   2   +   3   +   4   +
    
G|-----------7~-------7-----------|--------------------------------|
D|--------7---------------7-------|--------------------------------|
A|5-------------------------------|----------------3-------3-------|
E|--------------------------------|1-------1-----------------------|
  1   +   2   +   3   +   4   +    1   +   2   +   3   +   4   +


[Guitar Solo 1]

G|--------------------------------|--------------------------------|
D|--3-----------3-----------------|--3-----------3-----------------|
A|----5-----------5---------------|----5-----------5---------------| x2
E|3-----3-0---3-----3-0r----------|3-----3-0---3-----3-0-0r--------|
  1   +   2   +   3   +   4   +    1   +   2   +   3   +   4   +


[Verse]

G|--------------------------------|--------------------------------|
D|--3p0---2-----3p0---2r----------|--3p0---2-----3p0---2-2r--------|
A|--------------------------------|--------------------------------|
E|3-----3-----3-----3-------------|3-----3-----3-----3-------------|
  1   +   2   +   3   +   4   +    1   +   2   +   3   +   4   +   

G|--------------------------------|--------------------------------|--------------------------------|
D|--3p0---2-----3p0---2r----------|--3p0---2-----3p0---2-2r--------|--------------------------------|
A|--------------------------------|--------------------------------|1-------------------------------|
E|3-----3-----3-----3-------------|3-----3-----3-----3-------------|----------------1---------------|
  1   +   2   +   3   +   4   +    1   +   2   +   3   +   4   +    1   +   2   +   3   +   4   +   

G|--------------------------------|--------------------------------|
D|--3p0---2-----3p0---2r----------|--3p0---2-----3p0---2-2r--------|
A|--------------------------------|--------------------------------| x2
E|3-----3-----3-----3-------------|3-----3-----3-----3-------------|
  1   +   2   +   3   +   4   +    1   +   2   +   3   +   4   +   

G|--------------------------------|--------------------------------|
D|--3p0---2-----3p0---2r----------|--------------------------------|
A|--------------------------------|1---------------3---------------|
E|3-----3-----3-----3-------------|--------------------------------|
  1   +   2   +   3   +   4   +    1   +   2   +   3   +   4   +
    
G|--------------------------------|--------------------------------|
D|--3p0---2-----3p0---2r----------|--3p0---2-----3p0---2-2r--------|
A|--------------------------------|--------------------------------|
E|3-----3-----3-----3-------------|3-----3-----3-----3-------------|
  1   +   2   +   3   +   4   +    1   +   2   +   3   +   4   +   

G|--------------------------------|--------------------------------|
D|--3p0---2-----3p0---2r----------|--------------------------------|
A|--------------------------------|1-------------------------------|
E|3-----3-----3-----3-------------|----------------1---------------|
  1   +   2   +   3   +   4   +    1   +   2   +   3   +   4   +

G|--------------------------------|--------------------------------|
D|--3p0---2-----3p0---2r----------|--------------------------------|
A|--------------------------------|1---------------3---------------|
E|3-----3-----3-----3-------------|--------------------------------|
  1   +   2   +   3   +   4   +    1   +   2   +   3   +   4   + 
 

[Bridge]
 3/4
G|--------------2---------|--------2-----5-4-------|
D|--3-0---5-3-0---3-0-----|--3-0-----3-0-----5-3---|
A|--------------------3-2-|----------------------5-| x2
E|3-----3-----------------|3-----3-----------------|
  1   +   2   +   3   +    1   +   2   +   3   +    


[Chorus]
 4/4
G|--------------------------------|--------------------------------|
D|--------------------------------|--------------------------------|
A|1-------1-------------------0-1-|3-----2-3-----------------0-2-3-|
E|------------1-------1---1-1-----|------------3-------3---3-------|
  1   +   2   +   3   +   4   +    1   +   2   +   3   +   4   +
    
G|------------7~------7-------7---|--------------------------------|
D|--------7---------------7-------|--------------------------------|
A|5-------------------------------|------------3-------3-------3---|
E|--------------------------------|1-------1-----------------------|
  1   +   2   +   3   +   4   +    1   +   2   +   3   +   4   +  

G|--------------------------------|--------------------------------|
D|--------------------------------|----2---5---------------5-------|
A|1-------1-------------------0-1-|3---------------------5---5---0/|
E|------------1-------1---1-1-----|------------3-------3-------3---|
  1   +   2   +   3   +   4   +    1   +   2   +   3   +   4   +
    
G|--------9---9~------9---9---9---|--------------------------------|
D|----7---------------------7---7-|------------10----------10------|
A|5-------------------------------|8-------8-----------------------|
E|--------------------------------|--------------------------------|
  1   +   2   +   3   +   4   +    1   +   2   +   3   +   4   +
 6/4                             
G|------------------------------------------------|
D|10--------------10------10------10------10------|
A|------------------------------------------------|
E|------------------------------------------------|
  1   +   2   +   3   +   4   +   5   +   6   +   
 

[Guitar Solo 2]
 4/4
G|--------------------------------|--------------------------------|
D|--3-----------3-----------------|--3-----------3-----------------|
A|----5-----------5---------------|----5-----------5---------------|
E|3-----3-0---3-----3-0r----------|3-----3-0---3-----3-0-0r--------|
  1   +   2   +   3   +   4   +    1   +   2   +   3   +   4   +   

G|--------------------------------|--------------------------------|
D|--3-----------3-----------------|--3-----------3-----------------|
A|----5-----------5---------------|----5-----------5---------------|
E|3-----3-0---3-----3-0r----------|3-----3-0---3-----3-0-0r--0-1-2-|
  1   +   2   +   3   +   4   +    1   +   2   +   3   +   4   +  

G|--------------------------------|--------------------------------|
D|--3-----------3-----------------|--3-----------3-----------------|
A|----5-----------5---------------|----5-----------5---------------|
E|3-----3-0---3-----3-0r----------|3-----3-0---3-----3-0-0r-----0--|
  1   +   2   +   3   +   4   +    1   +   2   +   3   +   4   +  
 
G|--------------------------------|--------------------------------|
D|--3-----------3-----------------|--3-----------3-----------------|
A|----5-----------5---------------|----5-----------5---------------|
E|3-----3-0-0-3-----3-0r----------|3-----3-0---3-----3-0-0-0--0--0-|
  1   +   2   +   3   +   4   +    1   +   2   +   3   +   4   +  

G|--------------------------------|------------------------12------|
D|--------------------------------|----------------------12--12----|
A|1-------1-------------------0-1-|3-----1-3-5--------/10------10\-|
E|------------1-------1---1-1-----|------------3-------------------|
  1   +   2   +   3   +   4   +    1   +   2   +   3   +   4   +
    
G|------------7-------7---7---7---|--------------------5-------------------|
D|--------7---------7---7---7-----|----------------5h7---7-5---7-5---------|
A|5-----------------------------0-|------------3-------------7-----8-7-5---|
E|--------------------------------|1-----1-1-----------------------------8-|
  1   +   2   +   3   +   4   +    1   +   2   +   3     +     4     +    

G|--------------------------------|--------------------------------|
D|--------------------------------|----2---5-----------5---5---5---|
A|----------------------------0-1-|3-----------------5---5---5---0-|
E|6-------6\--1-------1---1-1-----|------------3-------------------|
  1   +   2   +   3   +   4   +    1   +   2   +   3   +   4   +
    
G|--------9---9~------9-----------|--------------------------------|
D|----7-------------------7-------|--------------------------------|
A|5-------------------------------|----------------3-------3-------|
E|----------------------------5-\-|1-------1-----------------------|
  1   +   2   +   3   +   4   +    1   +   2   +   3   +   4   +  

G|--------------------------------|--------------------------------|
D|--3-----------3-----------------|--3-----------3-----------------|
A|----5-----------5---------------|----5-----------5---------------|
E|3-----3-0---3-----3-0r----------|3-----3-0---3-----3-0-0r--0-1-2-|
  1   +   2   +   3   +   4   +    1   +   2   +   3   +   4   +  

G|--------------------------------|--------------------------------|
D|--3-----------3-----------------|--3p0---2-----3p0---2-2r--------|
A|----5-----------5---------------|--------------------------------|
E|3-----3-0---3-----3-0r----------|3-----3-----3-----3-------------|
  1   +   2   +   3   +   4   +    1   +   2   +   3   +   4   + 


[Verse]

G|--------------------------------|--------------------------------|
D|--3p0---2-----3p0---2r----------|--3p0---2-----3p0---2-2r--------|
A|--------------------------------|--------------------------------| x2
E|3-----3-----3-----3-------------|3-----3-----3-----3-------------|
  1   +   2   +   3   +   4   +    1   +   2   +   3   +   4   +   

G|--------------------------------|--------------------------------|--------------------------------|
D|--3p0---2-----3p0---2r----------|--3p0---2-----3p0---2-2r--------|--------------------------------|
A|--------------------------------|--------------------------------|1-------------------------------|
E|3-----3-----3-----3-------------|3-----3-----3-----3-------------|----------------1---------------|
  1   +   2   +   3   +   4   +    1   +   2   +   3   +   4   +    1   +   2   +   3   +   4   +   

G|--------------------------------|--------------------------------|
D|--3p0---2-----3p0---2r----------|--------------------------------|
A|--------------------------------|1---------------3---------------|
E|3-----3-----3-----3-------------|--------------------------------|
  1   +   2   +   3   +   4   +    1   +   2   +   3   +   4   +
    
G|--------------------------------|--------------------------------|
D|--3-----------3-----------------|--------------------------------|
A|----5-----------5---------------|1-------------------------------|
E|3-----3-0---3-----3-0r----------|----------------1-----------1---|
  1   +   2   +   3   +   4   +    1   +   2   +   3   +   4   +     

G|--------------------------------|--------------------------------|
D|--3-----------3-----------------|--------------------------------|
A|----5-----------5---------------|1---------0-1-2-3---------2-3---|
E|3-----3-0---3-----3-0r----------|------------------------------1-|
  1   +   2   +   3   +   4   +    1   +   2   +   3   +   4   +   

G|--------------------------------|--------------------------------|
D|--3-----------3-----------------|--3p0---2-----3p0---2-2r--------|
A|----5-----------5---------------|--------------------------------|
E|3-----3-0---3-----3-0r----------|3-----3-----3-----3-------------|
  1   +   2   +   3   +   4   +    1   +   2   +   3   +   4   +   


[Outro]
 3/4
G|--------------2---------|--------2-----5-4-------|--------------2---------|--------2-----5-4-------|
D|--3-0---5-3-0---3-0-----|--3-0-----3-0-----5-3---|--3-0---5-3-0---3-0-----|--3-0-----3-0-----5-3r--|
A|--------------------3-2-|----------------------5-|--------------------3-2-|------------------------|
E|3-----3-----------------|3-----3-----------------|3-----3-----------------|3-----3-----------------|
  1   +   2   +   3   +    1   +   2   +   3   +    1   +   2   +   3   +    1   +   2   +   3   +   
 
G|5-4-------5-4-------5-4-|-----5-4---------------||
D|----5-3r------5-3r------|5-3r------5-3r---------|| "The only thing we have to fear, is... fear itself..."
A|------------------------|-----------------------||
E|------------------------|-----------------------||
  1   +   2   +   3   +   1   +   2   +   3   +   


************************************

| x   Dead note
| h   Hammer-on
| p   Pull-off
| r   Release
| /   Slide up
| \   Slide down
| ~   Vibrato

************************************

            
            
Suggest correction
Creating personal tab
Creating personal tab
You can edit any tab online and save it as your Personal.

You can edit, replace or remove any tab part or add personal notes – all changes will be seen only by you.

Personal tabs can be accessed anytime from any device, even offline.
Learn more »
Give kudos to tab author, rate the tab!
1 2 3 4 5
comments
print report bad tab
guest
You may want to rate the tab now too:
select rating
Wanna post a correction for this tab? Suggest correction