Oops, an error
Loading. Please wait.
We have an official Cult Of Personality tab made by UG professional guitarists. Check out the tab »
×
46,123 views 90 this week
2 commentsread comments
1 2 3 4 5
x 12
add to favorites
×
Save as Personal and add changes to this tab that will be seen only by you. Learn more ›
×
You can save this tab as Personal to edit and correct it or add notes. All changes will be seen only by you. Learn more »
launch autoscroll
font size
0
reset
how to read this tab
guitar tuner
backing track
0:00
0:00
edit
Autoscroll
slow
fast
+/-
esc
set tempo
stop
Author
Difficulty
Cult Of Personality (Vivid)
                                                     Living Colour

[Rhythm Guitar]
e|-----------------------------|------------------------------|
B|-----------------------------|------------------------------|
G|-----------------------------|------------------------------|
D|----3-0---2----3-0---2-------|----3-0---2----3-0---2-2------|
A|-----------------------------|------------------------------|
E|--3-----3----3-----3---------|--3-----3----3-----3----------|

e|-----------------------------|------------------------------|
B|-----------------------------|------------------------------|
G|-----------------------------|------------------------------|
D|----3-0---2----3-0---2-------|----3-0---2----3-0---2-2------|
A|-----------------------------|------------------------------|
E|--3-----3----3-----3---------|--3-----3----3-----3----------|

e|--------------------------|-----------------------------|
B|--------------------------|-----------------------------|
G|----------------2---------|-----------------------------|
D|----3-0---5-3-----3-------|----3-0---2----3-0---2-------|
A|--------------5-----5-3-2-|-----------------------------|
E|--3-----3-----------------|--3-----3----3-----3---------|

  [Verse 1]
e|--------------------------------|------------------------------|
B|--------------------------------|------------------------------|
G|--------------------------------|------------------------------|
D|----3-0---2p-0---3-0---2-2------|----3-0---2----3p-0---2-------|
A|--------------------------------|------------------------------|
E|--3-----3------3-----3----------|--3-----3----3------3---------|

                                    >        >
e|-------------------------------|--------------------|
B|-------------------------------|--------------------|
G|-------------------------------|--3-----------------|
D|----3-0---2----3p-0---2-2------|--3--------3--------|
A|-------------------------------|--1--------3--------|
E|--3-----3----3------3----------|-----------1--------|

e|-------------------------------|--------------------------------|
B|-------------------------------|--------------------------------|
G|-------------------------------|--------------------------------|
D|----3-0---2p-0---3-0---2-------|----3-0---2p-0---3-0---2-2------|
A|-------------------------------|--------------------------------|
E|--3-----3------3-----3---------|--3-----3------3-----3----------|

e|-------------------------------|--------------------------------|
B|-------------------------------|--------------------------------|
G|-------------------------------|--------------------------------|
D|----3-0---2p-0---3-0---2-------|----3-0---2p-0---3-0---2-2------|
A|-------------------------------|--------------------------------|
E|--3-----3------3-----3---------|--3-----3------3-----3----------|

                                    >        >
e|-------------------------------|--------------------|
B|-------------------------------|--------------------|
G|-------------------------------|--3--------5--------|
D|----3p-0---2----3p-0---2-------|--3--------5--------|
A|-------------------------------|--1--------3--------|
E|--3------3----3------3---------|--------------------|

e|--------------------------------|---------------------------------|
B|--------------------------------|---------------------------------|
G|--------------------------------|---------------------------------|
D|----3-0---2p-0---3p-0---2-------|----3-0---2p-0---3p-0---2-2------|
A|--------------------------------|---------------------------------|
E|--3-----3------3------3---------|--3-----3------3------3----------|

                                      >        >
e|---------------------------------|--------------------|
B|---------------------------------|--------------------|
G|---------------------------------|--3-----------------|
D|----3p-0---2p-0---3p-0---2-------|--3--------3--------|
A|---------------------------------|--1--------3--------|
E|--3------3------3------3---------|-----------1--------|

                                     >        >
e|--------------------------------|--------------------|
B|--------------------------------|--------------------|
G|--------------------------------|--3--------5--------|
D|----3-0---2p-0---3p-0---2-------|--3--------5--------|
A|--------------------------------|--1--------3--------|
E|--3-----3------3------3---------|--------------------|

e|--------------------------|--------------------------|
B|--------------------------|--------------------------|
G|----------------2---------|----------2-----5-4-------|
D|----3-0---5-3-----3-------|----3-0-----4-0-----5-3---|
A|--------------5-----5-3-2-|------------------------5-|
E|--3-----3-----------------|--3-----3-----------------|

e|--------------------------|--------------------------|
B|--------------------------|--------------------------|
G|----------------2---------|----------2-----5-4-------|
D|----3-0---5-3-----3-------|----3-0-----4-0-----5-3---|
A|--------------5-----5-3-2-|------------------------5-|
E|--3-----5-----------------|--3-----3-----------------|

     ^       ^                                  ^
e|------------------------------|--------------------------------------|
B|--11------10--10------10--13--|----------13--12--L------13p-12-------|
G|--10------10------10----------|------12------12--L-------------12----|
D|--12------10------------------|--14----------12--L--12------------12-|
A|------------------------------|--------------------------------------|
E|------------------------------|--------------------------------------|

                                      ^           ^
e|--------------------------------|-----------------------------------|
B|----------10---------10---------|--10-----------8~--L-------8~------|
G|------11----------9----------9--|--10------10---9---L-----------9~--|
D|--12----------11---------11-----|--10--10------10---L--10~----------|
A|--------------------------------|-----------------------------------|
E|--------------------------------|-----------------------------------|

     ^       ^           T                    ^
e|----------------------------|-----------------------------------|
B|----------10--L-12b---23----|----------13--12--L--13--12-----12-|
G|--15------10--L-------------|------12------12--L----------12----|
D|--15------10--L-------------|--14----------12--L----------------|
A|--13-------8--L-------------|-----------------------------------|
E|----------------------------|-----------------------------------|

                                   [Guitar Solo 1] (Refer to solo guitar)
                                        ^       -/0
e|---------------------------------|-------------------------|
B|----------10----------10~--------|--/10-------8---L--------|
G|------11-------------------------|--/10-------9~--L--------|
D|--12----------11--14---------11--|--/10------10---L--------|
A|---------------------------------|-------------------------|
E|---------------------------------|-------------------------|

e|-----------------------------|--------------------------------|
B|-----------------------------|--------------------------------|
G|-----------------------------|--------------------------------|
D|----3-0---2----3-0---2-------|----3-0---2p-0---3-0---2-2------|
A|-----------------------------|--------------------------------|
E|--3-----3----3-----3---------|--3-----3------3-----3----------|

                                                [Verse 2]
e|------------------------------|-------|-------|-------------------------------|
B|------------------------------|-------|-------|-------------------------------|
G|------------------------------|-------|-------|-------------------------------|
D|----3-0---2----3p-0---2-------|-------|-------|----3-0---2----3p-0---2-2------|
A|------------------------------|-------|-------|-------------------------------|
E|--3-----3----3------3---------|-------|-------|--3-----3----3------3----------|

e|-----------------------------|--------------------------------|
B|-----------------------------|--------------------------------|
G|-----------------------------|--------------------------------|
D|----3-0---2----3-0---2-------|----3-0---2p-0---3-0---2-2------|
A|-----------------------------|--------------------------------|
E|--3-----3----3-----3---------|--3-----3------3-----3----------|

e|------------------------------|-------------------------------|
B|------------------------------|-------------------------------|
G|------------------------------|-------------------------------|
D|----3-0---2----3p-0---2-------|----3-0---2----3p-0---2-2------|
A|------------------------------|-------------------------------|
E|--3-----3----3------3---------|--3-----3----3------3----------|

    >        >
e|--------------------|-------------------------------|
B|--------------------|-------------------------------|
G|--3-----------------|-------------------------------|
D|--3--------3--------|----3-0---2p-0---3-0---2-------|
A|--1--------3--------|-------------------------------|
E|-----------1--------|--3-----3------3-----3---------|

e|--------------------------------|-------------------------------|
B|--------------------------------|-------------------------------|
G|--------------------------------|-------------------------------|
D|----3-0---2p-0---3-0---2-2------|----3-0---2p-0---3-0---2-------|
A|--------------------------------|-------------------------------|
E|--3-----3------3-----3----------|--3-----3------3-----3---------|

e|--------------------------------|-------------------------------|
B|--------------------------------|-------------------------------|
G|--------------------------------|-------------------------------|
D|----3-0---2p-0---3-0---2-2------|----3p-0---2----3p-0---2-------|
A|--------------------------------|-------------------------------|
E|--3-----3------3-----3----------|--3------3----3------3---------|

    >        >
e|--------------------|--------------------------------|
B|--------------------|--------------------------------|
G|--3--------5--------|--------------------------------|
D|--3--------5--------|----3-0---2p-0---3p-0---2-------|
A|--1--------3--------|--------------------------------|
E|--------------------|--3-----3------3------3---------|

e|---------------------------------|---------------------------------|
B|---------------------------------|---------------------------------|
G|---------------------------------|---------------------------------|
D|----3-0---2p-0---3p-0---2-2------|----3p-0---2p-0---3p-0---2-------|
A|---------------------------------|---------------------------------|
E|--3-----3------3------3----------|--3------3------3------3---------|

    >        >                                            >        >
e|--------------------|--------------------------------|--------------------|
B|--------------------|--------------------------------|--------------------|
G|--3-----------------|--------------------------------|--3--------5--------|
D|--3--------3--------|----3-0---2p-0---3p-0---2-------|--3--------5--------|
A|--1--------3--------|--------------------------------|--1--------3--------|
E|-----------1--------|--3-----3------3------3---------|--------------------|

e|--------------------------|--------------------------|
B|--------------------------|--------------------------|
G|----------------2---------|----------2-----5-4-------|
D|----3-0---5-3-----3-------|----3-0-----4-0-----5-3---|
A|--------------5-----5-3-2-|------------------------5-|
E|--3-----3-----------------|--3-----3-----------------|

e|--------------------------|--------------------------|
B|--------------------------|--------------------------|
G|----------------2---------|----------2-----5-4-------|
D|----3-0---5-3-----3-------|----3-0-----4-0-----5-3---|
A|--------------5-----5-3-2-|------------------------5-|
E|--3-----5-----------------|--3-----3-----------------|

     ^       ^                                  ^
e|------------------------------|--------------------------------------|
B|--11------10--10------10--13--|----------13--12--L------13p-12-------|
G|--10------10------10----------|------12------12--L-------------12----|
D|--12------10------------------|--14----------12--L--12------------12-|
A|------------------------------|--------------------------------------|
E|------------------------------|--------------------------------------|

                                      ^           ^
e|--------------------------------|-----------------------------------|
B|----------10---------10---------|--10-----------8~--L-------8~------|
G|------11----------9----------9--|--10------10---9---L-----------9~--|
D|--12----------11---------11-----|--10--10------10---L--10~----------|
A|--------------------------------|-----------------------------------|
E|--------------------------------|-----------------------------------|

     ^       ^           T                    ^
e|----------------------------|-----------------------------------|
B|----------10--L-12b---23----|----------13--12--L--13--12-----12-|
G|--15------10--L-------------|------12------12--L----------12----|
D|--15------10--L-------------|--14----------12--L----------------|
A|--13-------8--L-------------|-----------------------------------|
E|----------------------------|-----------------------------------|

                                   [Guitar Solo 2] (Refer to solo guitar)
e|---------------------------------|--------------------|
B|----------10----------10~--------|---8----------------|
G|------11-------------------------|---9----------------|
D|--12----------11--14---------11--|--10----------------| [Pause]
A|---------------------------------|--------------------|
E|---------------------------------|--------------------|

     ^       ^                                  ^
e|------------------------------|--------------------------------------|
B|--11------10--10------10--13--|----------13--12--L------13p-12-------|
G|--10------10------10----------|------12------12--L-------------12----|
D|--12------10------------------|--14----------12--L--12------------12-|
A|------------------------------|--------------------------------------|
E|------------------------------|--------------------------------------|

                                      ^           ^
e|--------------------------------|-----------------------------------|
B|----------10---------10---------|--10-----------8~--L-------8~------|
G|------11----------9----------9--|--10------10---9---L-----------9~--|
D|--12----------11---------11-----|--10--10------10---L--10~----------|
A|--------------------------------|-----------------------------------|
E|--------------------------------|-----------------------------------|

     ^       ^                                  ^
e|------------------------------|--------------------------------------|
B|--11------10--10------10--13--|----------13--12--L------13p-12-------|
G|--10------10------10----------|------12------12--L-------------12----|
D|--12------10------------------|--14----------12--L--12------------12-|
A|------------------------------|--------------------------------------|
E|------------------------------|--------------------------------------|

                                      ^           ^
e|--------------------------------|-----------------------------------|
B|----------10---------10---------|--10-----------8~--L-------8~------|
G|------11----------9----------9--|--10------10---9---L-----------9~--|
D|--12----------11---------11-----|--10--10------10---L--10~----------|[Pause]
A|--------------------------------|-----------------------------------|
E|--------------------------------|-----------------------------------|

 [Verse 3]
e|-----------------------------|--------------------------------|
B|-----------------------------|--------------------------------|
G|-----------------------------|--------------------------------|
D|----3-0---2----3-0---2-------|----3-0---2p-0---3-0---2-2------|
A|-----------------------------|--------------------------------|
E|--3-----3----3-----3---------|--3-----3------3-----3----------|

e|------------------------------|-------------------------------|
B|------------------------------|-------------------------------|
G|------------------------------|-------------------------------|
D|----3-0---2----3p-0---2-------|----3-0---2----3p-0---2-2------|
A|------------------------------|-------------------------------|
E|--3-----3----3------3---------|--3-----3----3------3----------|

e|-----------------------------|---------------------------------|
B|-----------------------------|---------------------------------|
G|-----------------------------|---------------------------------|
D|----3-0---2----3-0---2-------|----3-0---2p-0---3p-0---2-2------|
A|-----------------------------|---------------------------------|
E|--3-----3----3-----3---------|--3-----3------3------3----------|

    >        >                                           >        >
e|--------------------|-------------------------------|--------------------|
B|--------------------|-------------------------------|-----------5--------|
G|--3-----------------|-------------------------------|--3--------5--------|
D|--3--------3--------|----3-0---2p-0---3-0---2-------|--3--------5--------|
A|--1--------3--------|-------------------------------|--1--------3--------|
E|-----------1--------|--3-----3------3-----3---------|--------------------|

                                      >        >
e|---------------------------------|--------------------|
B|---------------------------------|--------------------|
G|---------------------------------|--3-----------------|
D|----3-0---2p-0---3p-0---2-2------|--3--------3--------|
A|---------------------------------|--1--------3--------|
E|--3-----3------3------3----------|-----------1--------|

                                    >        >
e|-------------------------------|--------------------|
B|-------------------------------|-----------5--------|
G|-------------------------------|--3--------5--------|
D|----3-0---2p-0---3-0---2-------|--3--------5--------|
A|-------------------------------|--1--------3--------|
E|--3-----3------3-----3---------|--------------------|

e|---------------------------------|--------------------------------|
B|---------------------------------|--------------------------------|
G|---------------------------------|--------------------------------|
D|----3-0---2p-0---3p-0---2-2------|----3-0---2p-0---3-0---2-2------|
A|---------------------------------|--------------------------------|
E|--3-----3------3------3----------|--3-----3------3-----3----------|

                 [Outro]
e|---------------|--------------------------|--------------------------|
B|---------------|--------------------------|--------------------------|
G|---------------|----------------2---------|----------2-----5-4-------|
D|---------------|----3-0---5-3-----3-------|----3-0-----4-0-----5-3-0-|
A|---------------|--------------5-----5-3-2-|--------------------------|
E|---------------|--3-----3-----------------|--3-----3-----------------|

e|--------------------------|-------------------------|--------------------------|
B|--------------------------|-------------------------|--------------------------|
G|----------------2---------|----------2-----5-4------|--5-4-------5-4-------5-4-|
D|----3-0---5-3-----3-------|----3-0-----4-0-----5-3--|------5-3-------5-3-------|
A|--------------5-----5-3-2-|-------------------------|--------------------------|
E|--3-----3-----------------|--3-----3----------------|--------------------------|

e|------------------|-------------------||
B|------------------|-------------------||
G|--------5-4-------|-------------------||
D|--5-3-------5-3---|-------------------||
A|------------------|-------------------||
E|------------------|-------------------||

[Solo Guitar]
e|-------|-------|-------|-------|-------|-------|-------|--------------------|
B|-------|-------|-------|-------|-------|-------|-------|--3-----------------|
G|-------|-------|-------|-------|-------|-------|-------|--2-----------------|
D|-------|-------|-------|-------|-------|-------|-------|--3-----------------|
A|-------|-------|-------|-------|-------|-------|-------|--------------------|
E|-------|-------|-------|-------|-------|-------|-------|--------------------|

e|-------|-------|-------|-------|-------|-------|-------|-------|-------|-------|
B|-------|-------|-------|-------|-------|-------|-------|-------|-------|-------|
G|-------|-------|-------|-------|-------|-------|-------|-------|-------|-------|
D|-------|-------|-------|-------|-------|-------|-------|-------|-------|-------|
A|-------|-------|-------|-------|-------|-------|-------|-------|-------|-------|
E|-------|-------|-------|-------|-------|-------|-------|-------|-------|-------|

e|-------|-------|-------|-------|-------|-------|-------|-------|-------|-------|
B|-------|-------|-------|-------|-------|-------|-------|-------|-------|-------|
G|-------|-------|-------|-------|-------|-------|-------|-------|-------|-------|
D|-------|-------|-------|-------|-------|-------|-------|-------|-------|-------|
A|-------|-------|-------|-------|-------|-------|-------|-------|-------|-------|
E|-------|-------|-------|-------|-------|-------|-------|-------|-------|-------|

e|-------|-------|-------|-------|-------|---------------15~----|
B|-------|-------|-------|-------|-------|----------------------|
G|-------|-------|-------|-------|-------|----------------------|
D|-------|-------|-------|-------|-------|----------------------|
A|-------|-------|-------|-------|-------|----------------------|
E|-------|-------|-------|-------|-------|----------------------|

                                                       |--3--|
e|--L--17p-15--------15-15-15-------------------------------------|
B|------------17p-15----------18b-L--L-18-15-18-18g15--17-15------|
G|-----------------------------------------------------------17br-|
D|----------------------------------------------------------------|
A|----------------------------------------------------------------|
E|----------------------------------------------------------------|

                                          \0    \0
e|--------------------------------------------------|
B|-------------------15-18-15-----------------------|
G|--L-15----15-L-17b----------17b-18-15-(15)--(15)--|
D|-------17-----------------------------------------|
A|--------------------------------------------------|
E|--------------------------------------------------|

     -/1 -/0                             -/2      -/1   \1
e|------------------------------------------------------18-L-L-----|
B|---------------------------------------18--L--L-15--L------------|
G|--(15)-15~---------------------------L---------------------------|
D|-----------------------------------------------------------------|
A|-----------------------------------------------------------------|
E|-----------------------------------------------------------------|

    -\2   /2 -\2 /2 -\2 -\2 /2 -\2              -/0
e|--18--L--L--L---L--L---L---L--L----|--------------|--------------------|-------|
B|-----------------------------------|--10-------8--|--3-----------------|-------|
G|-----------------------------------|--10-------9--|--2-----------------|-------|
D|-----------------------------------|--10------10--|--3-----------------|-------|
A|-----------------------------------|--------------|--------------------|-------|
E|-----------------------------------|--------------|--------------------|-------|

e|-------|-------|-------|-------|-------|-------|-------|-------|-------|-------|
B|-------|-------|-------|-------|-------|-------|-------|-------|-------|-------|
G|-------|-------|-------|-------|-------|-------|-------|-------|-------|-------|
D|-------|-------|-------|-------|-------|-------|-------|-------|-------|-------|
A|-------|-------|-------|-------|-------|-------|-------|-------|-------|-------|
E|-------|-------|-------|-------|-------|-------|-------|-------|-------|-------|

e|-------|-------|-------|-------|-------|-------|-------|-------|-------|-------|
B|-------|-------|-------|-------|-------|-------|-------|-------|-------|-------|
G|-------|-------|-------|-------|-------|-------|-------|-------|-------|-------|
D|-------|-------|-------|-------|-------|-------|-------|-------|-------|-------|
A|-------|-------|-------|-------|-------|-------|-------|-------|-------|-------|
E|-------|-------|-------|-------|-------|-------|-------|-------|-------|-------|

e|-------|-------|-------|-------|-------|-------|-------|-----------------------|
B|-------|-------|-------|-------|-------|-------|-------|-------------------18b-|
G|-------|-------|-------|-------|-------|-------|-------|-----------------------|
D|-------|-------|-------|-------|-------|-------|-------|-----------------------|
A|-------|-------|-------|-------|-------|-------|-------|-----------------------|
E|-------|-------|-------|-------|-------|-------|-------|-----------------------|

          |---3--|                            |---3----|
e|-------15------------------------------------------------------------------------|
B|--L-------18p-15-18p-15h-17p-15------------15h-18p-15h-17p-15----15---15h-18p-15-|
G|--------------------------------17p-15h-17--------------------17-----------------|
D|---------------------------------------------------------------------------------|
A|---------------------------------------------------------------------------------|
E|---------------------------------------------------------------------------------|

                                                                    |---3---|
e|---------------------------------------------------------------------------------|
B|--17p-15------------15h-18p-15h-17p-15--------15-----15------------15-18p-15h-17-|
G|---------17p-15h-17--------------------17p-15----17b----17p-15h-17---------------|
D|---------------------------------------------------------------------------------|
A|---------------------------------------------------------------------------------|
E|---------------------------------------------------------------------------------|

      |---3---|                                                            |--3---|
e|---------------------------------------------------------------------------------|
B|---------------17p-15----15-------------------15h-17-----------15h-17-15---------|
G|--L-17pb-17-15--------17----17p-15-------------0-------------------------x-------|
D|-----------------------------------17p-15h-17--------17-15h-17-------------15h-1-|
A|---------------------------------------------------------------------------------|
E|---------------------------------------------------------------------------------|

                                    |----3---|
e|---------------------------------------------------------------------------------|
B|--------------15-17-15-------17-15----15----------15h-18p-15h-17p-15-15----15----|
G|--17-------------------17-15-------17----17-15-17-----------------------17----17-|
D|-----17-15-17--------------------------------------------------------------------|
A|---------------------------------------------------------------------------------|
E|---------------------------------------------------------------------------------|

                   \0/
e|--------------------------------------|
B|-----------------------3-5-3-5b-------|
G|--Lb--L-15\-0-0h-3---5-------5b-5-3---|
D|---------------------5--------------5-|
A|--------------------------------------|
E|--------------------------------------|

           |--6-| |--6-|                    |-3--|
e|-----------------------6-10-8-6----6----------6-8-10-8-6------|
B|--3--------5h-6-6-8p-6----------10---10-8-6-8------------10---|
G|--3-5g7~------------------------------------------------------|
D|--------------------------------------------------------------|
A|--------------------------------------------------------------|
E|--------------------------------------------------------------|

            |-3-|              |--6--|   |--6-|           |--6--|  |--6-----|
E|--6-------------------------------------------------------------------------|
B|----10-8-6-10-6-8-10------------------------------------9------------9------|
G|---------------------10-9-7---10p-9p-7h-10p-9-7----7-10---9-------10---10---|
D|----------------------------0-------------------8-----------10-12-----------|
A|----------------------------------------------------------------------------|
E|----------------------------------------------------------------------------|

                                                 |--3--|
E|---------------------------------------------------------|
B|-----10-11-12----------10---------13-0----15-------18-17-|
G|--10----------12----10----12----0------------17-15-------|
D|-----------------12----------13--------17----------------|
A|---------------------------------------------------------|
E|---------------------------------------------------------|

                       |--3--|
E|---------------------------------------------------|
B|--15-----------18~----18-17-15-18-17-15----15---15-|
G|-----17-15------------------------------17----0----|
D|-----------0-0-------------------------------------|
A|---------------------------------------------------|
E|---------------------------------------------------|

     W        \0/ W
e|-------------------------------|-----------------------------------|
B|--15-------------------20br-L--|--Lb--L----20b--Lb---L-L\----------|
G|-----------17---L----L---------|--------------------------4s--14br-|
D|---------x-15---L----L---------|-----------------------------------|
A|-------------------------------|-----------------------------------|
E|-------------------------------|-----------------------------------|

         -/2    \2/                      \0/       \1/
                          |----3---|  |---3---|
e|--------------------------------------------------------|
B|--------------------------------------------------------|
G|--L--L--17--L--14--L-L-(14)h-15p-14-14-(14)-15-14-12----|
D|--------------------------------------------------------|
A|--------------------------------------------------------|
E|--------------------------------------------------------|

   \0/                                            \1
    |--3--|    |--3--------|
e|---------------------------------------------------------|
B|--------------------------------------------------0------|
G|--12h~--15p~-12h~--15p~-12h~--15p~-12~-L--15g12~---------|
D|---------------------------------------------------------|
A|---------------------------------------------------------|
E|---------------------------------------------------------|

e|--18b----L-18br-(18)p-15-15---------------------------------------------------|
B|----------------------------18p-17h-18-18p-15-19-16-19-16-19p-15----15----15h-|
G|-----------------------------------------------------------------17----18-----|
D|------------------------------------------------------------------------------|
A|------------------------------------------------------------------------------|
E|------------------------------------------------------------------------------|

e|--------------------------------------------------------------------------------|
B|--17-15----------15-18-15-18p-15h-17p-15-(0)----15-18p-15-----------------------|
G|--------17-15-17-----------------------------17-----------18-17-15-17b-17----15-|
D|--------------------------------------------------------------------------15----|
A|--------------------------------------------------------------------------------|
E|--------------------------------------------------------------------------------|

                 |---3---|
e|-------------------------------------------------------------|
B|-----(0)-----------------------------------------------------|
G|--17-----17----17b-17-15---17b---17b-17-15----15-17b-15------|
D|------------15-----------------------------17-----------17---|
A|-------------------------------------------------------------|
E|-------------------------------------------------------------|

e|---------------------------------------------------|
B|-----------------------------------------15b-------|
G|--15-17-15----15-17b-15-17-15-17b-15-17b-15b--(0)--|
D|-----------17--------------------------------------|
A|---------------------------------------------------|
E|---------------------------------------------------|

e|-----------------------------------|-----------------------------------------|
B|--5--5-3-L-------------------------|--5--------------------------------------|
G|--5--5-3-L---5-3-5-3---3-5br-L-3---|--5---5-3---3-5br-L-3--------------------|
D|--5--5-3-L-5-5-3-5-3-------------5-|------5---5-----------5s-7b-L--L------10-|
A|-----------5---------5-------------|----5--------------------------7\--------|
E|-----------------------------------|-----------------------------------------|

     \2/ \1/
                   |---6---|    |---6---|  |---6---|    |---6-----|
e|-------------------------------------------------------------------|
B|--11---------------------------------------------------------------|
G|------12----L--5g8h~-11~-8h~-11~-8h~-11~-8h~-11~-8h~-11~-8h~-11~---|
D|-------------------------------------------------------------------|
A|-------------------------------------------------------------------|
E|-------------------------------------------------------------------|

    \3
e|-----------------------|--------------------|-----------|-----------|
B|-----------------------|--3-----------------|-----------|-----------|
G|--8(11)----------------|--2-----------------|-----------|-----------|
D|-----------------------|--3-----------------|-----------|-----------|
A|-----------------------|--------------------|-----------|-----------|
E|-----------------------|--------------------|-----------|-----------|



************************************

| x    Dead note
| g    Grace note
| (n)  Ghost note
| h    Hammer-on
| p    Pull-off
| b    Bend
| br   Bend release
| pb   Pre-bend
| /    Slide up
| \    Slide down
| ~    Vibrato
| s    Shift Slide

************************************

            
            
Suggest correction
Creating personal tab
Creating personal tab
You can edit any tab online and save it as your Personal.

You can edit, replace or remove any tab part or add personal notes – all changes will be seen only by you.

Personal tabs can be accessed anytime from any device, even offline.
Learn more »
comments
print report bad tab
2 comments total.
0 reply
MaxRiffage 24 Oct 18, 2015 08:23 AM

Same problems as Version 4 here. The main riff isn't played on the open strings at all. Watch any video of the band and you will see how he's playing the D, G and C notes at the fifth fret, not open. It just doesn't sound right without the ability to left-hand mute those notes. Jazzy chord at the start of the verse missing. Chorus chords don't coda - there are different inversions in the 2nd half of the chorus.

0 reply
MaxRiffage 24 Oct 18, 2015 08:23 AM

The main riff isn't played on the open strings at all. Watch any video of the band and you will see how he's playing the D, G and C notes at the fifth fret, not open. It just doesn't sound right without the ability to left-hand mute those notes. Jazzy chord at the start of the verse missing. Chorus chords don't coda - there are different inversions in the 2nd half of the chorus.

guest
You may want to rate the tab now too:
select rating
Wanna post a correction for this tab? Suggest correction