Oops, an error
Loading. Please wait.

Glamour Boys tab

version 2
version 2

Whole song

Interactive

1,816 views 6 this week
no commentswrite comment
1 2 3 4 5
x 4
add to favorites
×
Save as Personal and add changes to this tab that will be seen only by you. Learn more ›
×
You can save this tab as Personal to edit and correct it or add notes. All changes will be seen only by you. Learn more »
launch autoscroll
font size
0
reset
how to read this tab
guitar tuner
edit
Autoscroll
slow
fast
+/-
esc
set tempo
stop
--------------------------------------------------------------------------
                            Living Colour: Glamour Boys
--------------------------------------------------------------------------
Tabbed by: Edm RockJunkie
             (Michael T)                         Please Rate if you like!!

Complete Song with rhythm and solos transcribed, a Vernon Reid classic!!
I noticed there wasn't a real accurate and fully complete version of this and it's one I 
jam to.

Pretty standard tune with up/down strumming for main verse and rhythm
sections, a matter of getting the technique and speed down. With some thunderous power 
to fill out the chorus. During the solo allow the
open root notes to ring throughout... fun song, hope you enjoy!!

           [Rhythm Fig 1]
E|--------|----------------------------------------------------------|
B|- bass -|-5-5-xx-5-5-xx-7-7-xx-7-7-xx-9-9-xx-9-9-xx-9h10-10-10-x10-|
G|--- & --|-6-6-xx-6-6-xx-7-7-xx-7-7-xx-9-9-xx-9-9-xx-9----9--9--x9--|
D|- drum -|-7-7-xx-7-7-xx-7-7-xx-7-7-xx-9-9-xx-9-9-xx-9----9--9--x9--|
A|--------|----------------------------------------------------------|
E|--------|----------------------------------------------------------|

                                                [End 1]
E|----------------------------------------------------|------------|
B|-5-5-xx-5-5-xx-7-7-xx-7-7-xx-5-5-xx-5-5-xx-5-5-x5-5-|-- Repeat---|
G|-6-6-xx-6-6-xx-7-7-xx-7-7-xx-4-4-xx-4-4-xx-4-4-x4-4-|- Rhy Fig1--|
D|-7-7-xx-7-7-xx-7-7-xx-7-7-xx-6-6-xx-6-6-xx-6-6-x6-6-|--- 4 x ----|
A|----------------------------------------------------|------------|
E|----------------------------------------------------|------------|

  [Rhythm Fig 2]                    ...       ...
E|-...------...---------------------------------------------------|
B|----------------------------------------------------------------|
G|--------------7----9-9------------------------7----9-9----------|
D|-----7--------7----9-9--5---5--------7--------7----9-9--5---5---|
A|-----7----5-5-5----7-7--5---5--------7----5-5-5----7-7--5---5---|
E|-5-5-5------------------3---3----5-5-5------------------3---3---|

        ...     ...                    ...      ... E2   [riff A]
E|----------------------------------------------------------------|
B|----------------------------------------------------------------|
G|--------------7----9-9------------------------7---12----11---9--|
D|-----7--------7----9-9--5---5--------7--------7---12----11---9--|
A|-----7----5-5-5----7-7--5---5--------7----5-5-5---10----9----7--|
E|-5-5-5------------------3---3----5-5-5--------------------------|

E|-----------------|-----------|------------|
B|-----------------|- Repeat --|-- Repeat --|
G|--7----6----9----| Rhy Fig1 -|- Rhy Fig2 -|
D|--7----6----9----|-- 4 x ----|------------|
A|--5----4----7----|-----------|------------|
E|-----------------|-----------|------------|

  [Solo]
e|------------------------|
B|----------------7-------|
G|------6---7-6---6--9-6--|
D|--x/7---7-7--------7----|
A|--0-----0-----0---------|
E|------------------------|

E|----------------------------------------------------------------|
B|-----------------------------------------------------------7----|
G|-7--6-7-6-------6---7-6-----------77-7-6---------6---7-6---6--9-|
D|-7--7-7-7---x/7---7-7---9-----6-9--------9---x/7---7-7--------7-|
A|-0----------0-----0---------7----------------0-----0-----0------|
E|------------------------0---------------------------------------|

E|---------------------------------------|------------|-------------|
B|---------------------------------------|------------|-------------|
G|-6-7--6-7-6-------6---7-6-7--7---6---9-|-- Repeat --|-- Repeat ---|
D|---7--7-7-7---x/7---7-7-7-7--7---6---9-|- Solo - * -|-- riff A ---|
A|---0----------0-----0--------5---4---7-|------------|-------------|
E|---------------------------------------|------------|-------------|

E|-----------|-----------|----------------------------|---------|--5-----\x-|
B|-- Repeat -|-- Repeat -|--5-5-5-5-5-5-5-6-6-6-6-6-6-|---------|--5-----\x-|
G|- Rhy Fig1 |- Rhy Fig2 |--5-5-5-5-5-5-5-5-5-5-5-5-5-|- pause -|--6-----\x-|
D|--- 4 x ---|--- 2 x ---|--5-5-5-5-5-5-5-5-5-5-5-5-5-|---------|--7-----\x-|
A|-----------|-----------|--3-3-3-3-3-3-3-3-3-3-3-3-3-|---------|--7-----\x-|
E|-----------|-----------|----------------------------|---------|--5-----\x-|

************************************

| x  Dead note
| h  Hammer-on

************************************

            
            
Suggest correction
Creating personal tab
Creating personal tab
You can edit any tab online and save it as your Personal.

You can edit, replace or remove any tab part or add personal notes – all changes will be seen only by you.

Personal tabs can be accessed anytime from any device, even offline.
Learn more »
comments
print report bad tab
guest
You may want to rate the tab now too:
select rating
Wanna post a correction for this tab? Suggest correction