Oops, an error
Loading. Please wait.
We have an official Bound For The Floor tab made by UG professional guitarists. Check out the tab »
×
by Local H
2,116 views 9 this week
1 commentread comment
1 2 3 4 5
x 8
add to favorites
×
Save as Personal and add changes to this tab that will be seen only by you. Learn more ›
×
You can save this tab as Personal to edit and correct it or add notes. All changes will be seen only by you. Learn more »
launch autoscroll
font size
0
reset
guitar tuner
edit
Autoscroll
slow
fast
+/-
esc
set tempo
stop
Author
-----------------------------------------------------------------------------
                        BOUND FOR THE FLOOR - Local H
-----------------------------------------------------------------------------

Tabbed by: Matt Broback
E-mail: 37hambone@gmail.com

Tuning: Eb Ab Db Gb

INTRO
|--------|--------|--------|--------|--------|--------|--------|--------|
|--------|--------|--------|--------|--------|--------|--------|--------|
|--------|--------|-------5|-55-5550|-------3|-33-3330|-------5|-550232-|
|--------|--------|3-3-330-|--------|5-5-550-|--------|3-3-330-|-------3|

VERSE                               x3
|---------|--------|--------|---------|--------|--------|--------|--------|
|:--------|--------|--------|--------:|--------|--------|--------|--------|
|:-------3|-33-3330|-------5|-55-5550:|-------3|-33-3330|-------5|-550232-|
|-5-5-550-|--------|3-3-330-|---------|5-5-550-|--------|3-3-330-|-------3|

CHORUS 1
|---------|--------|--------|---------|
|:--------|--------|--------|--------:|
|:-------3|-33-3330|-------5|-550232-:|
|-5-5-550-|--------|3-3-330-|-------3-|

VERSE                               x3
|---------|--------|--------|---------|--------|--------|--------|--------|
|:--------|--------|--------|--------:|--------|--------|--------|--------|
|:-------3|-33-3330|-------5|-55-5550:|-------3|-33-3330|-------5|-550232-|
|-5-5-550-|--------|3-3-330-|---------|5-5-550-|--------|3-3-330-|-------3|

CHORUS 2                            x6
|---------|--------|--------|---------|
|:--------|--------|--------|--------:|
|:-------3|-33-3330|-------5|-550232-:|
|-5-5-550-|--------|3-3-330-|-------3-|

SOLO                                  x3
|----------|--------|---------|---------|---------|--------|---------|--------|
|:---------|--------|---------|--------:|---------|--------|---------|--------|
|:00000002/|3333333\|-------3/|5555555\:|00000002/|3333333\|-------3/|5550232-|
|----------|--------|3333333--|---------|---------|--------|3333333--|-------3|

CHORUS 3                            x4
|---------|--------|--------|---------|
|:--------|--------|--------|--------:|
|:-------3|-33-3330|-------5|-550232-:|
|-5-5-550-|--------|3-3-330-|-------3-|

OUTRO
|--------|--------|--------|--------|--------|--------|--------|
|--------|--------|--------|--------|--------|--------|--------|
|-------3|-33-3330|-------5|-55-5550|-------3|-33-3330|-------5|
|5-5-550-|--------|3-3-330-|--------|5-5-550-|--------|3-3-330-|

            
            
Suggest correction
Creating personal tab
Creating personal tab
You can edit any tab online and save it as your Personal.

You can edit, replace or remove any tab part or add personal notes – all changes will be seen only by you.

Personal tabs can be accessed anytime from any device, even offline.
Learn more »
comments
print report bad tab
1 comment total.
0 reply
sirlesa 52 Jun 07, 2014 08:52 AM

i love this song, great work

guest
You may want to rate the tab now too:
select rating
Wanna post a correction for this tab? Suggest correction