Oops, an error
Loading. Please wait.

Sports Bar tab

by Local H
716 views 1 this week
2 commentsread comments
1 2 3 4 5
x 4
add to favorites
×
Save as Personal and add changes to this tab that will be seen only by you. Learn more ›
×
You can save this tab as Personal to edit and correct it or add notes. All changes will be seen only by you. Learn more »
launch autoscroll
font size
0
reset
how to read this tab
guitar tuner
edit
Autoscroll
slow
fast
+/-
esc
set tempo
stop
Author
Difficulty
Local H - Sports Bar
by braim
its actually the acoustic version
intro/verse:

E-----------------------------------------------------------------|
B-------------4---4---3-----3---------------4---------------3-----|
G-0..-0-0-0-0-0-0-0-0-0-0-0-0------------0----0---0------0----and so on..
D-5..-6-6-6-6-6-6-6-6-5-5-5-5--5-5-5-5/6---6----6---6--5---5------|
A-----------------------------------------------------------------|
E-----------------------------------------------------------------|

Fucked up - drunk and stoned
Every choice has a no
Speech slurred - I called you again
You're not even my friend

then:

--------------------------------|
--------------------------------|
----------0---0----------0---0--|
--6-6-6-6-6-6-6--5-5-5-5-5-5-5--| and so on...
--6-6-6-6-6-6-6--5-5-5-5-5-5-5--|
--4-4-4-4-4-4-4--3-3-3-3-3-3-3--|

    Choked up - I gotta go
   every choice has a no
   I'm broke - I don't belong
   They're raping my favorite song

prechorus:

---------------------------------------------|
---------------------------------------------|
-----------3-x-3-3-x--5-x-5-----------5-5----|
--3-x-3-3--3-x-3-3-x--5-x-5-----------5-5----|
--3-x-3-3--1-x-1-1-x--3-x-3-3-3h5p3-0-3-3----|
--1-x-1-1------------------------------------|

And every time I wake up I feel sad
I dream about the things I used to have
And how did I get into this?

chorus:
----------------------------------|
----------------------------------|
--5-x-----------------------------|
--5-x--6--6-6-6--8-8--5--5-5-5----|
--3-x--6--6-6-6--8-8--5--5-5-5----|
-------4--4-4-4--6-6--3--3-3-3----|

I'm tied to it

Teased up - high hair disgust
No sex - a natural distrust
I don't care - you can't get through
I dig hating you
I did it again
Drink it up - pissed off
I'm a hack, you're a smoker's cough
I'd like to fuck, but you're too dumb
Gee, it's great being single and young
And every time I try to talk to you
I know there's something else you'd rather do
And how did I get into this? - I'm tied to it


And every time I wake up bruised
I know that my brain's not in use
And every time when things are great
I don't know why I detonate
I'm tied to it


I did it again


And every time I wake up bruised
I know that my brain's not in use
And every time when things are great
I don't know why I detonate
I'm tied to it

scott rulz

            
            
Suggest correction
Creating personal tab
Creating personal tab
You can edit any tab online and save it as your Personal.

You can edit, replace or remove any tab part or add personal notes – all changes will be seen only by you.

Personal tabs can be accessed anytime from any device, even offline.
Learn more »
comments
print report bad tab
2 comments total.
+1 reply
pizzamampff 436 Nov 19, 2008 04:12 AM

sorry guys there`s a mistake in the "I`m tie to it" part. the 3rd chord is wrong..find it out:-)

+1 reply
pizzamampff 436 Dec 15, 2008 08:14 AM

ok i did it......please rate guys.one of scotts best songs!!!

guest
You may want to rate the tab now too:
select rating
Wanna post a correction for this tab? Suggest correction