Oops, an error
Loading. Please wait.

Mt Washington chords

version 3
version 3

Whole song

Interactive

1,870 views 18 this week
no commentswrite comment
1 2 3 4 5
x 5
add to favorites
×
Save as Personal and add changes to this tab that will be seen only by you. Learn more ›
×
You can save this tab as Personal to edit and correct it or add notes. All changes will be seen only by you. Learn more »
launch autoscroll
font size
0
reset
transpose
0
reset
display chords
guitar tuner
edit
Autoscroll
slow
fast
+/-
esc
set tempo
stop
Strumming Is this strumming pattern correct? Yes No
Whole Song 120 bpm
1
&
2
&
3
&
4
&
Listen
Song: Mt. Washington
Artist: Local Natives
Album: Hummingbird
Tabbed by: Hockeyvampire
Email: garettbidd@hotmail.com
Tuning: Standard  Capo: 2nd fret  Acoustic Guitar

NOTE: Alternatively you could play it without a capo,
and just add 2 to every number at play it using your index
finger, muting the rest of the strings. 

The chords used in the song are: 

         F#m           D            A           E
e|---------------------------------------------(0)-----|
B|-------(0)----------(0)----------(0)---------(0)-----|
G|--------0-----------(0)-----------4-----------2------|
D|--------2------------2------------5-----------4------|
A|--------2------------3------------5-----------5------|
E|-------(0)-----------3-----------(0)----------0------|
The (0) are notes that are played during the chords occasionally
throughout the song in different places each time.
depending on how you play the song depends on where
you play these (0). 

And here is the strumming pattern. The F#m's are unique and end differently
then every other chord. Only change positions on the F#m's.
     >           >        >              >
e|------------------------------------------------------|
B|------------------------------------------------------|
G|---0--0--0--0--0--0--0--0--0--0--0--0--0--2--2--2-----|
D|---2--2--2--2--2--2--2--2--2--2--2--2--2--2--2--2-----|
A|---2--2--2--2--2--2--2--2--2--2--2--2--2--2--2--2-----|
E|------------------------------------------------------|

The chords are strummed in either an alternate or a down
strumming pattern. It depends on your preference.
Accents are played depending your preference.
The reason I say preference is because some
aspects of the song varies between different players
of the song.
Above are what I play the accents as.
Each time a chord is played, it is played 16 times.

[Intro] 
F#m D F#m D

[Verse 1]

F#m                 D
Face stained in the ceiling
F#m              D  
Why does it keep saying
A                        D
"I don't have to see you right now"
A                        D
"I don't have to see you right now"
D

[Chorus]
The chorus is played with a keyboard or a clean electric guitar.
e|---------------------------------------------------------------------------|
B|---7--10--14----7--10--14----14--12--12--10----14--12--12--10--------------|
G|---------------------------------------------------------------------------|
D|---------------------------------------------------------------------------|
A|---------------------------------------------------------------------------|
E|---------------------------------------------------------------------------|

[Verse 2]
F#m                    D
Digging what you can't bury
F#m                   D
Something that cannot die
A                              D
We could wash the dirt off our hands now
E                   D
Keep it from within underground
[Verse 3]
F#m         D
Lazy summer goddess
F#m                    D
You can tell our whole empire
A                        D
"I don't have to see you right now"
E                        D
"I don't have to see you right now"

[Chorus]

e|---------------------------------------------------------------------------|
B|---7--10--14----7--10--14----14--12--12--10----14--12--12--10--------------|
G|---------------------------------------------------------------------------|
D|---------------------------------------------------------------------------|
A|---------------------------------------------------------------------------|
E|---------------------------------------------------------------------------|

[Verse 4]

F#m                      D
"I don't have to see you right now"
F#m                      D
"I don't have to see you right now"
A                        D
"I don't have to see you right now"
E                        D
"I don't have to see you right now"

[Outro]
For the outro, slowly strum the next chords.
F#m D F#m D F#m D F#m D














            
            
Suggest correction
Creating personal tab
Creating personal tab
You can edit any tab online and save it as your Personal.

You can edit, replace or remove any tab part or add personal notes – all changes will be seen only by you.

Personal tabs can be accessed anytime from any device, even offline.
Learn more »
comments
print report bad tab
guest
You may want to rate the tab now too:
select rating
Wanna post a correction for this tab? Suggest correction