Oops, an error
Loading. Please wait.

Something Else tab

by Logan
656 views 1 this week
no commentswrite comment
1 2 3 4 5
2 more votes to show rating
add to favorites
×
Save as Personal and add changes to this tab that will be seen only by you. Learn more ›
×
You can save this tab as Personal to edit and correct it or add notes. All changes will be seen only by you. Learn more »
launch autoscroll
font size
0
reset
how to read this tab
guitar tuner
edit
Autoscroll
slow
fast
+/-
esc
set tempo
stop
Author
WWW.LOGAN-NET.COM

Tabbed by Craig Fraser (Loganite)

Intro:
e|---------------------------------------------------------------------------|
B|---3--3--3-----------------------------------------------------------------|
G|---2--2--2-----------------------------------------------------------------|
D|---0--0--0---0---5--5--5---0---7--7--7-------------------------------------|
A|---0--0--0---0---3--3--3---0---5--5--5-----------3-------------------------|
D|---0--0--0---0---3--3--3---0---5--5--5---0-5-6-7---6-5-3-------------------| 

e|---------------------------------------------------------------------------|
B|---3--3--3-----------------------------------------------------------------|
G|---2--2--2-----------------------------------------------------------------|
D|---0--0--0---0---5--5--5---0---7-------------------------------------------|
A|---0--0--0---0---3--3--3---0---5-------------------------------------------|
D|---0--0--0---0---3--3--3---0---5-------------------------------------------| 


Verse: repeat x4 (End 4th time with)
e|---------0-------------0-----------0-------------|-------------------------|
B|-------3---3---------3---3-------3---3-----------|-------------------------|
G|-----2-------2-----2-------2---2-------2---------|-------------------------|
D|---0---------------------------------------------|--(5-5-5-3)--------------|
A|-----------------------------3-------------------|--(5-5-5-3)--------------|
D|----------------3------------------------5-3-5---|--(5-5-5-3)--------------|

Chorus:
e|---------------------------------------------------------------------------|
B|---3--3--3-----------------------------------------------------------------|
G|---2--2--2-----------------------------------------------------------------|
D|---0--0--0---0---5--5--5---0---7--7--7-------------------------------------|
A|---0--0--0---0---3--3--3---0---5--5--5-----------3-------------------------|
D|---0--0--0---0---3--3--3---0---5--5--5---0-5-6-7---6-5-3-------------------| 

e|---------------------------------------------------------------------------|
B|---3--3--3-----------------------------------------------------------------|
G|---2--2--2-----------------------------------------------------------------|
D|---0--0--0---0---5--5--5---0---7--7--7---0-5-6-6-6-5-3---------------------|
A|---0--0--0---0---3--3--3---0---5--5--5---0-5-6-6-6-5-3---------------------|
D|---0--0--0---0---3--3--3---0---5--5--5---0-5-6-6-6-5-3---------------------| 

e|---------------------------------------------------------------------------|
B|---3--3--3-----------------------------------------------------------------|
G|---2--2--2-----------------------------------------------------------------|
D|---0--0--0---0---5--5--5---0---7--7--7-------------------------------------|
A|---0--0--0---0---3--3--3---0---5--5--5-----------3-------------------------|
D|---0--0--0---0---3--3--3---0---5--5--5---0-5-6-7---6-5-3-------------------| 

e|---------------------------------------------------------------------------|
B|---3--3--3-----------------------------------------------------------------|
G|---2--2--2-----------------------------------------------------------------|
D|---0--0--0---0---5--5--5---0---7-------------------------------------------|
A|---0--0--0---0---3--3--3---0---5-------------------------------------------|
D|---0--0--0---0---3--3--3---0---5-------------------------------------------| 

Verse: repeat x4 (End 4th time with)
e|---------0-------------0-----------0-------------|-------------------------|
B|-------3---3---------3---3-------3---3-----------|-------------------------|
G|-----2-------2-----2-------2---2-------2---------|-------------------------|
D|---0---------------------------------------------|--(5-5-5-3)--------------|
A|-----------------------------3-------------------|--(5-5-5-3)--------------|
D|----------------3------------------------5-3-5---|--(5-5-5-3)--------------|


Chorus:
e|---------------------------------------------------------------------------|
B|---3--3--3-----------------------------------------------------------------|
G|---2--2--2-----------------------------------------------------------------|
D|---0--0--0---0---5--5--5---0---7--7--7-------------------------------------|
A|---0--0--0---0---3--3--3---0---5--5--5-----------3-------------------------|
D|---0--0--0---0---3--3--3---0---5--5--5---0-5-6-7---6-5-3-------------------| 

e|---------------------------------------------------------------------------|
B|---3--3--3-----------------------------------------------------------------|
G|---2--2--2-----------------------------------------------------------------|
D|---0--0--0---0---5--5--5---0---7--7--7---0-5-6-6-6-5-3---------------------|
A|---0--0--0---0---3--3--3---0---5--5--5---0-5-6-6-6-5-3---------------------|
D|---0--0--0---0---3--3--3---0---5--5--5---0-5-6-6-6-5-3---------------------| 

e|---------------------------------------------------------------------------|
B|---3--3--3-----------------------------------------------------------------|
G|---2--2--2-----------------------------------------------------------------|
D|---0--0--0---0---5--5--5---0---7--7--7-------------------------------------|
A|---0--0--0---0---3--3--3---0---5--5--5-----------3-------------------------|
D|---0--0--0---0---3--3--3---0---5--5--5---0-5-6-7---6-5-3-------------------| 

e|---------------------------------------------------------------------------|
B|---3--3--3-----------------------------------------------------------------|
G|---2--2--2-----------------------------------------------------------------|
D|---0--0--0---0---5--5--5---0---7-------------------------------------------|
A|---0--0--0---0---3--3--3---0---5-------------------------------------------|
D|---0--0--0---0---3--3--3---0---5-------------------------------------------|  

Bridge:
e|--------------------------------------------------------------------------|
B|--------------------------------------------------------------------------|
G|--------------------------------------------------------------------------|
D|----------------------------------------------------10-10-10--------------|
A|------5p4p0---------------------5p4p0---------------8--8---8--------------|
D|----0-------8p7p0-6p5p0-3---0-0-------8p7p0-6p5p0---8--8---8--------------|

e|--------------------------------------------------------------------------|
B|--------------------------------------------------------------------------|
G|--------------------------------------------------------------------------|
D|----------------------------------------------------0-10------------------|
A|------5p4p0---------------------5p4p0---------------0--8------------------|
D|----0-------8p7p0-6p5p0-3---0-0-------8p7p0-6p5p0---0--8------------------|

e|--------------------------------------------------------------------------|
B|--------------------------------------------------------------------------|
G|--------------------------------------------------------------------------|
D|----------------------------------------------------0-10------------------|
A|------5p4p0---------------------5p4p0---------------0--8------------------|
D|----0-------8p7p0-6p5p0-3---0-0-------8p7p0-6p5p0---0--8------------------|

e|--------------------------------------------------------------------------|
B|--------------------------------------------------------------------------|
G|--------------------------------------------------------------------------|
D|----------------------------------------------------10-10-10--------------|
A|------5p4p0---------------------5p4p0---------------8--8---8--------------|
D|----0-------8p7p0-6p5p0-3---0-0-------8p7p0-6p5p0---8--8---8--------------|


Chorus:
e|---------------------------------------------------------------------------|
B|---3--3--3-----------------------------------------------------------------|
G|---2--2--2-----------------------------------------------------------------|
D|---0--0--0---0---5--5--5---0---7--7--7-------------------------------------|
A|---0--0--0---0---3--3--3---0---5--5--5-----------3-------------------------|
D|---0--0--0---0---3--3--3---0---5--5--5---0-5-6-7---6-5-3-------------------|

e|---------------------------------------------------------------------------|
B|---3--3--3-----------------------------------------------------------------|
G|---2--2--2-----------------------------------------------------------------|
D|---0--0--0---0---5--5--5---0---7--7--7---0-5-6-6-6-5-3---------------------|
A|---0--0--0---0---3--3--3---0---5--5--5---0-5-6-6-6-5-3---------------------|
D|---0--0--0---0---3--3--3---0---5--5--5---0-5-6-6-6-5-3---------------------| 

e|---------------------------------------------------------------------------|
B|---3--3--3-----------------------------------------------------------------|
G|---2--2--2-----------------------------------------------------------------|
D|---0--0--0---0---5--5--5---0---7--7--7-------------------------------------|
A|---0--0--0---0---3--3--3---0---5--5--5-----------3-------------------------|
D|---0--0--0---0---3--3--3---0---5--5--5---0-5-6-7---6-5-3-------------------|

e|---------------------------------------------------------------------------|
B|---3--3--3-----------------------------------------------------------------|
G|---2--2--2-----------------------------------------------------------------|
D|---0--0--0---0---5--5--5---0---7--7--7---0-5-6-6-6-5-3---------------------|
A|---0--0--0---0---3--3--3---0---5--5--5---0-5-6-6-6-5-3---------------------|
D|---0--0--0---0---3--3--3---0---5--5--5---0-5-6-6-6-5-3---------------------| 


Rhythm Under Solo:
e|---------------------------------------------------------------------------|
B|---3--3--3-----------------------------------------------------------------|
G|---2--2--2-----------------------------------------------------------------|
D|---0--0--0---0---5--5--5---0---7--7--7-------------------------------------|
A|---0--0--0---0---3--3--3---0---5--5--5-----------3-------------------------|
D|---0--0--0---0---3--3--3---0---5--5--5---0-5-6-7---6-5-3-------------------| 

e|---------------------------------------------------------------------------|
B|---3--3--3-----------------------------------------------------------------|
G|---2--2--2-----------------------------------------------------------------|
D|---0--0--0---0---5--5--5---0---7--7--7---0-5-6-6-6-5-3---------------------|
A|---0--0--0---0---3--3--3---0---5--5--5---0-5-6-6-6-5-3---------------------|
D|---0--0--0---0---3--3--3---0---5--5--5---0-5-6-6-6-5-3---------------------| 

e|---------------------------------------------------------------------------|
B|---3--3--3-----------------------------------------------------------------|
G|---2--2--2-----------------------------------------------------------------|
D|---0--0--0---0---5--5--5---0---7--7--7-------------------------------------|
A|---0--0--0---0---3--3--3---0---5--5--5-----------3-------------------------|
D|---0--0--0---0---3--3--3---0---5--5--5---0-5-6-7---6-5-3-------------------|

e|---------------------------------------------------------------------------|
B|---3--3--3-----------------------------------------------------------------|
G|---2--2--2-----------------------------------------------------------------|
D|---0--0--0---0---5--5--5---0---7--7--7---0-3-3-3-0-------------------------|
A|---0--0--0---0---3--3--3---0---5--5--5---0-3-3-3-0-------------------------|
D|---0--0--0---0---3--3--3---0---5--5--5---0-3-3-3-0-------------------------|

            
            
Suggest correction
Creating personal tab
Creating personal tab
You can edit any tab online and save it as your Personal.

You can edit, replace or remove any tab part or add personal notes – all changes will be seen only by you.

Personal tabs can be accessed anytime from any device, even offline.
Learn more »
Give kudos to tab author, rate the tab!
1 2 3 4 5
comments
print report bad tab
guest
You may want to rate the tab now too:
select rating
Wanna post a correction for this tab? Suggest correction