Oops, an error
Loading. Please wait.

Stand To Reason tab

by Logan
745 views 1 this week
no commentswrite comment
1 2 3 4 5
2 more votes to show rating
add to favorites
×
Save as Personal and add changes to this tab that will be seen only by you. Learn more ›
×
You can save this tab as Personal to edit and correct it or add notes. All changes will be seen only by you. Learn more »
launch autoscroll
font size
0
reset
how to read this tab
guitar tuner
edit
Autoscroll
slow
fast
+/-
esc
set tempo
stop
Author
Logan - Stand To Reason

Tabbed by: Craig Fraser (Loganite)

WWW.LOGAN-NET.COM

Intro:
e|---------------------------------------------------------------------------|
B|---------------------------------------------------------------------------|
G|---------------------------------------------------------------------------|
D|---------------------------------------------------------------------------|
A|------5-----------------3---------------5----------------------------------|
D|--0-0---3-0-3-4-0-3-4-5---5-3-------0-0---3-0-3-4-0-3-4-5------------------| 

e|---------------------------------------------------------------------------|
B|---------------------------------------------------------------------------|
G|---------------------------------------------------------------------------|
D|---------------------------------------------------------------------------|
A|------5-----------------3---------------5----------------------------------|
D|--0-0---3-0-3-4-0-3-4-5---5-3-------0-0---3-0-3-4-0-3-4-5b-----------------|

Verse:
e|---------------------------------------------------------------------------|
B|---------------------------------------------------------------------------|
G|---------------------------------------------------------------------------|
D|---------------------------------------------------------------------------|
A|------5-3----------------5-3-----------3-----------------------------------|
D|--0-0-----3-3--0-4-5-0-0-----3-0-3-4-5---5---------------------------------|

e|---------------------------------------------------------------------------|
B|---------------------------------------------------------------------------|
G|---------------------------------------------------------------------------|
D|---------------------------------------------------------------------------|
A|------5-3----------------5-3-----------3-----------------------------------|
D|--0-0-----3-3--0-4-5-0-0-----3-0-3-4-5---5---------------------------------|

Verse/Pre-Chorus?
e|---------------------------------------------------------------------------|
B|---------------------------------------------------------------------------|
G|---------------------------------------------------------------------------|
D|----------------------5p3-------7p5----------------------5p3------7p5------|
A|-----5-----3---5-------------------------5-----3---5-----------------------|
D|-0-0---0-0---0----3-3-----5-5-5------0-0---0-0---0---3-3----5-5-5----------|

e|---------------------------------------------------------------------------|
B|---------------------------------------------------------------------------|
G|---------------------------------------------------------------------------|
D|----------------------5p3-------7p5----------------------5p3------7p5------|
A|-----5-----3---5-------------------------5-----3---5-----------------------|
D|-0-0---0-0---0----3-3-----5-5-5------0-0---0-0---0---3-3----5-5-5----------|

Chorus:
e|---------------------------------------------------------------------------|
B|---------------------------------------------------------------------------|
G|--10-10-10-10-10----12-12-12-----------------------------------------------|
D|--10-10-10-10-10----12-12-12-----------------------------------------------|
A|--8--8--8--8--8-----10-10-10-----------------------------------------------|
D|--8--8--8--8--8-----10-10-10----12-slide-0---------------------------------|

e|---------------------------------------------------------------------------|
B|--3-3-3--3-3-3--------------3-3-3--3-3-3-----------------------------------|
G|--2-2-2--2-2-2--------------2-2-2--2-2-2-----------------------------------|
D|--0-0-0--0-0-0--------------0-0-0--0-0-0-----------------------------------|
A|--0-0-0--0-0-0--0-0--3------0-0-0--0-0-0---------3-------------------------|
D|--0-0-0--0-0-0--0-0----2----0-0-0--0-0-0---3-4-5---5-3-5-------------------|

e|---------------------------------------------------------------------------|
B|--3-3-3--3-3-3--------------3-3-3--3-3-3-----------------------------------|
G|--2-2-2--2-2-2--------------2-2-2--2-2-2-----------------------------------|
D|--0-0-0--0-0-0--------------0-0-0--0-0-0-----------------------------------|
A|--0-0-0--0-0-0--0-0--3------0-0-0--0-0-0---------3-------------------------|
D|--0-0-0--0-0-0--0-0----2----0-0-0--0-0-0---3-4-5---5-3-5-------------------| 

Verse:
e|---------------------------------------------------------------------------|
B|---------------------------------------------------------------------------|
G|---------------------------------------------------------------------------|
D|---------------------------------------------------------------------------|
A|------5-3----------------5-3-----------3ph---------------------------------|
D|--0-0-----3-3--0-4-5-0-0-----3-0-3-4-5---5ph-------------------------------|


e|---------------------------------------------------------------------------|
B|---------------------------------------------------------------------------|
G|---------------------------------------------------------------------------|
D|---------------------------------------------------------------------------|
A|------5-3----------------5-3-----------3-----------------------------------|
D|--0-0-----3-3--0-4-5-0-0-----3-0-3-4-5---5---------------------------------|

Verse/Pre-Chorus?
e|---------------------------------------------------------------------------|
B|---------------------------------------------------------------------------|
G|---------------------------------------------------------------------------|
D|----------------------5p3-------7p5----------------------5p3------7p5------|
A|-----5-----3---5-------------------------5-----3---5-----------------------|
D|-0-0---0-0---0----3-3-----5-5-5------0-0---0-0---0---3-3----5-5-5----------|

e|---------------------------------------------------------------------------|
B|---------------------------------------------------------------------------|
G|---------------------------------------------------------------------------|
D|----------------------5p3-------7p5----------------------5p3------7p5------|
A|-----5-----3---5-------------------------5-----3---5-----------------------|
D|-0-0---0-0---0----3-3-----5-5-5------0-0---0-0---0---3-3----5-5-5----------|

Chorus:
e|---------------------------------------------------------------------------|
B|---------------------------------------------------------------------------|
G|--10-10-10-10-10----12-12-12-----------------------------------------------|
D|--10-10-10-10-10----12-12-12-----------------------------------------------|
A|--8--8--8--8--8-----10-10-10-----------------------------------------------|
D|--8--8--8--8--8-----10-10-10----12-slide-0---------------------------------|

e|---------------------------------------------------------------------------|
B|--3-3-3--3-3-3--------------3-3-3--3-3-3-----------------------------------|
G|--2-2-2--2-2-2--------------2-2-2--2-2-2-----------------------------------|
D|--0-0-0--0-0-0--------------0-0-0--0-0-0-----------------------------------|
A|--0-0-0--0-0-0--0-0--3------0-0-0--0-0-0---------3-------------------------|
D|--0-0-0--0-0-0--0-0----2----0-0-0--0-0-0---3-4-5---5-3-5-------------------|


e|---------------------------------------------------------------------------|
B|--3-3-3--3-3-3--------------3-3-3--3-3-3-----------------------------------|
G|--2-2-2--2-2-2--------------2-2-2--2-2-2-----------------------------------|
D|--0-0-0--0-0-0--------------0-0-0--0-0-0-----------------------------------|
A|--0-0-0--0-0-0--0-0--3------0-0-0--0-0-0---------3-------------------------|
D|--0-0-0--0-0-0--0-0----2----0-0-0--0-0-0---3-4-5---5-3-5-0-(let ring out)--| 

Bridge:
e|---------------------------------------------------------------------------|
B|---------------------------------------------------------------------------|
G|---------------------------------------------------------------------------|
D|---------------------------------------------------------------------------|
A|----------5-------------3---------5----------------------------------------|
D|--0-0-3-0---0-3-0-3-4-5---0-0-3-0---0-3-0-3-4-5----------------------------|

e|---------------------------------------------------------------------------|
B|---------------------------------------------------------------------------|
G|---------------------------------------------------------------------------|
D|-------------------------------------3-3-----------------------------------|
A|----------5-------------3---------5--3-3-----------------------------------|
D|--0-0-3-0---0-3-0-3-4-5---0-0-3-0----3-3-----------------------------------|

Rhythm Guitar:
e|---------------------------------------------------------------------------|
B|---------------------------------------------------------------------------|
G|---------------------------------------------------------------------------|
D|---------------------------------------------------------------------------|
A|----------5-------------3---------5----------------------------------------|
D|--0-0-3-0---0-3-0-3-4-5---0-0-3-0---0-3-0-3-4-5----------------------------|

e|---------------------------------------------------------------------------|
B|---------------------------------------------------------------------------|
G|---------------------------------------------------------------------------|
D|---------------------------------------------------------------------------|
A|----------5-------------3---------5----------------------------------------|
D|--0-0-3-0---0-3-0-3-4-5---0-0-3-0---0-3-0-3-4-5----------------------------|


Lead Guitar on top of last Rhythm part:
e|---------------------------------------------------------------------------|
B|---------------------------------------------------------------------------|
G|--14-14-14-14-14-14-14-15-14-12--14-14-14-14-14-14-14-15-14----------------|
D|---------------------------------------------------------------------------|
A|--12-12-12-12-12-12-12-13-12-10--12-12-12-12-12-12-12-13-12----------------|
D|---------------------------------------------------------------------------|

e|---------------------------------------------------------------------------|
B|---------------------------------------------------------------------------|
G|--14-14-14-14-14-14-14-15-14-12--14-14-14-14-14-14-14-15-14----------------|
D|---------------------------------------------------------------------------|
A|--12-12-12-12-12-12-12-13-12-10--12-12-12-12-12-12-12-13-12----------------|
D|---------------------------------------------------------------------------|

Chorus:
e|---------------------------------------------------------------------------|
B|---------------------------------------------------------------------------|
G|--10-10-10-10-10----12-12-12-----------------------------------------------|
D|--10-10-10-10-10----12-12-12-----------------------------------------------|
A|--8--8--8--8--8-----10-10-10-----------------------------------------------|
D|--8--8--8--8--8-----10-10-10----12-slide-0---------------------------------|

e|---------------------------------------------------------------------------|
B|--3-3-3--3-3-3--------------3-3-3--3-3-3-----------------------------------|
G|--2-2-2--2-2-2--------------2-2-2--2-2-2-----------------------------------|
D|--0-0-0--0-0-0--------------0-0-0--0-0-0-----------------------------------|
A|--0-0-0--0-0-0--0-0--3------0-0-0--0-0-0---------3-------------------------|
D|--0-0-0--0-0-0--0-0----2----0-0-0--0-0-0---3-4-5---5-3-5-------------------|

e|---------------------------------------------------------------------------|
B|--3-3-3--3-3-3--------------3-3-3--3-3-3-----------------------------------|
G|--2-2-2--2-2-2--------------2-2-2--2-2-2-----------------------------------|
D|--0-0-0--0-0-0--------------0-0-0--0-0-0-----------------------------------|
A|--0-0-0--0-0-0--0-0--3------0-0-0--0-0-0---------3-------------------------|
D|--0-0-0--0-0-0--0-0----2----0-0-0--0-0-0---3-4-5---5-3-5-------------------| 


Outro:
e|---------------------------------------------------------------------------|
B|---------------------------------------------------------------------------|
G|---------------------------------------------------------------------------|
D|---------------------------------------------------------------------------|
A|------5-----------------3---------------5----------------------------------|
D|--0-0---3-0-3-4-0-3-4-5---5-3-------0-0---3-0-3-4-0-3-4-5b-----------------| 

e|---------------------------------------------------------------------------|
B|---------------------------------------------------------------------------|
G|---------------------------------------------------------------------------|
D|---------------------------------------------------------5-5---------------|
A|------5-----------------3---------------5----------------5-5---------------|
D|--0-0---3-0-3-4-0-3-4-5---5-3-------0-0---3-0-3-4-0-3-4--5-5---------------|

            
            
Suggest correction
Creating personal tab
Creating personal tab
You can edit any tab online and save it as your Personal.

You can edit, replace or remove any tab part or add personal notes – all changes will be seen only by you.

Personal tabs can be accessed anytime from any device, even offline.
Learn more »
Give kudos to tab author, rate the tab!
1 2 3 4 5
comments
print report bad tab
guest
You may want to rate the tab now too:
select rating
Wanna post a correction for this tab? Suggest correction