Oops, an error
Loading. Please wait.
We have Chord Pro version of Amazed.
It's the closest thing you can get to the original song and it has interactive parts. Check out the tab »
×
2,374 views 3 this week
no commentswrite comment
1 2 3 4 5
2 more votes to show rating
add to favorites
×
Save as Personal and add changes to this tab that will be seen only by you. Learn more ›
×
You can save this tab as Personal to edit and correct it or add notes. All changes will be seen only by you. Learn more »
launch autoscroll
font size
0
reset
guitar tuner
edit
Autoscroll
slow
fast
+/-
esc
set tempo
stop
-------------------------------------------------------------------------------
			     Amazed - Lonestar
-------------------------------------------------------------------------------

Tabbed By : Martin Carlin
e-mail: martincarlin87@hotmail.com

Tuning: Standard

This song uses the same pattern for all of the different sections,
except the section after the chorus (and solo).

The first shape seems different because you are starting on the E string, but if you
played the octave on the D string you would see it's the actually the same shape.

I think the proper term is the I, V, VI, IV progression.


Verse
===========

The bass doesn't play the intro or the first verse.

G|---------------------------------------------------------------------------|
D|---------------------------------------------------------------------------|
A|----------6--6-6--8--8-8--4-4-4--------------------------------------------|
E|--4--4-4-------------------------------------------------------------------|x2

Chords: G#|D#m|F|C#


Pre-Chorus
==========

This is where the bass comes in.

G|---------------------------------------------------------------------------|
D|---------------------------------------------------------------------------|
A|--2--2-2-------------------------------------------------------------------|
E|----------2--2-2--4--4-4--0--0-0-------------------------------------------|x2

Chords: B|F#|G#m|E


Chorus
==========
G|---------------------------------------------------------------------------|
D|---------------------------------------------------------------------------|
A|--4--4-4-------------------------------------------------------------------|
E|----------4--4-4--6--6-6--2--2-2-------------------------------------------|x2

Chords: C#|G#|A#m|F#
then:


G|---------------------------------------------------------------------------|
D|---------------------------------------------------------------------------|
A|---------------------------------------------------------------------------|
E|--0--0-0--2--2-2--4--4-4--4--4-4-------------------------------------------|

Chords: E|F#|G#|G#

Hold G# then repeat everything from the verse.


Solo
==========

G|---------------------------------------------------------------------------|
D|---------------------------------------------------------------------------|
A|--2--2-2--4--4-4-------------2--2-2-----------4--4-4-4-4-X-----------------|
E|-------------------2--2-2------------2--2-2--------------------------------|

Chords: B|C#|F#
        B|F#|C#


Key Change/Outro
==================

(Same as the chorus but moved up 2 semi-tones/frets)

You will need to listen to the song to get the timing right here after the solo, the chords are below but
after the stop for the solo you miss out the D# first time around and instead play A#|C (6-8 on the A string)
for the two big drum hits that bring everything back in and then carry on as normal from there.

G|---------------------------------------------------------------------------|
D|---------------------------------------------------------------------------|
A|--6--6-6-------------------------------------------------------------------|
E|----------6--6-6--8--8-8--4--4-4-------------------------------------------|x2

Chords: D#|A#|C|G#

then:


G|---------------------------------------------------------------------------|
D|---------------------------------------------------------------------------|
A|---------------------------------------------------------------------------|
E|--2--2-2--4--4-4--4--------------------------------------------------------|x2

Which is just the after chorus section but again, two semitones up and twice at the end instead of once.

Chords: F#|G#

Outro riff:

G|---------------------------------------------------------------------------|
D|---------------------------------------------------------------------------|
A|---------------------------------------------------------------------------|
E|--6--4--2-----------6~------------------------------------------------------|

End on A#

===============================================================================

            
            
Suggest correction
Creating personal tab
Creating personal tab
You can edit any tab online and save it as your Personal.

You can edit, replace or remove any tab part or add personal notes – all changes will be seen only by you.

Personal tabs can be accessed anytime from any device, even offline.
Learn more »
Give kudos to tab author, rate the tab!
1 2 3 4 5
comments
print report bad tab
guest
You may want to rate the tab now too:
select rating
Wanna post a correction for this tab? Suggest correction