Oops, an error
Loading. Please wait.

Hates The Party chords

100 views 1 this week
no commentswrite comment
1 2 3 4 5
3 more votes to show rating
add to favorites
×
Save as Personal and add changes to this tab that will be seen only by you. Learn more ›
×
You can save this tab as Personal to edit and correct it or add notes. All changes will be seen only by you. Learn more »
launch autoscroll
font size
0
reset
transpose
0
reset
simplify chords
display chords
guitar tuner
edit
Autoscroll
slow
fast
+/-
esc
set tempo
stop
Author
Difficulty
Strumming
There is no strumming pattern for this song yet. and get +5 IQ
https://www.youtube.com/watch?v=xhNw2TLb_qA (at around 3:10)

Chords used:

  C#m7  B Eadd4   C#m B(2) C#m7(2) Badd4  E/B 
e|------4---------12---7-----4-----2-------7-----------------------------------|
B|------4---------9----7-----5-----4-------9-----------------------------------|
G|--4---4---1-----9----8-----4-----4-------9-----------------------------------|
D|--2---4---2-----11---9-----6-----2-------9-----------------------------------|
A|--4---6--------------------4-----2-------------------------------------------|
E|------7--------------------4-------------------------------------------------|


[Intro]

C#m7 B Eadd4 4x


[Verse]

C#m7 B Eadd4 
alone        in the dark, 
      C#m7 B Eadd4
is it more alone 
                      C#m7 B Eadd4
than alone in the light 
                      C#m7 B Eadd4
that keeps you up at night 

C#m    B(2)  C#m7(2)  Badd4
there's more than one reason 
   C#m    B(2)  C#m7(2)  Badd4
to hate the world spinning 
   C#m    B(2)  C#m7(2)  Badd4
       the world spinning 

Eadd4 Badd4 E/B


[Chorus]

Badd4              Eadd4 Badd4 E/B
everyone hates the party 
Badd4
everyone hates the party, 
    E/B     Badd4   E/B
you say you love me 
Badd4              Eadd4 Badd4
everyone hates the party 


[Verse]

C#m7 B Eadd4 
at home, 
                 C#m7 B          Eadd4 
do you leave the blue screen on? 
                 C#m7      B     Eadd4 
do you watch the dots like everything 

C#m7 B Eadd4 

C#m      B(2) C#m7(2)       Badd4
please don't forget you're something 
  C#m    B(2)  C#m7(2)      Badd4
I listen to    when I'm not sleeping 
  C#m    B(2)  C#m7(2)      Badd4
               when I'm not sleeping

Eadd4 Badd4 E/B


[Chorus]

Badd4              Eadd4 Badd4 E/B
everyone hates the party 
Badd4
everyone hates the party, 
    E/B     Badd4   E/B
you say you love me 
Badd4              Eadd4 Badd4
everyone hates the party


[Bridge]

e|--9-----9-----9-----9-----11------11------11------11------12------11-------|
B|-----0-----0-----0-----0------0-------0-------0-------0-------14------0----|
G|-----9-----9-----9-----9------11------11------11------11--13------11-------|
D|--7-----7-----7-----7-----9-------9-------9-------9-------11------9--------|
A|---------------------------------------------------------------------------|
E|---------------------------------------------------------------------------|

e|--9-----7-----9-----7-----4-----7-----4-----9--9--7--7--9--9--7--7---------|
B|-----0-----9-----0-----9-----5-----9-----5--------7--7--------7--7---------|
G|--9-----8-----9-----8-----6-----8-----6-----9--9--8--8--9--9--8--8---------|
D|--7-----6-----7-----6-----7-----7-----7-----7--7--7--7--7--7--7--7---------|
A|---------------------------------------------------------------------------|
E|---------------------------------------------------------------------------|

e|--------7--7--------7--7--9--9--7--7--9--9--7--7--9--9--7--7--9--9--7--7---|
B|--------7--7--------7--7--------7--7--------7--7--------7--7--------7--7---|
G|--6--6--8--8--6--6--8--8--9--9--8--8--9--9--8--8--9--9--8--8--9--9--8--8---|
D|--6--6--9--9--6--6--9--9--7--7--7--7--7--7--7--7--7--7--7--7--7--7--7--7---|
A|--4--4--9--9--4--4--9--9---------------------------------------------------|
E|--5--5--7--7--5--5--7--7---------------------------------------------------|

fortune grows 

where you lie the most, 

and time says "today, 

be afraid it's not the same, 

today"

e|---------------------------------------------------------------------------|
B|---------------------------------------------------------------------------|
G|--6------------------------------------------------------------------------|
D|--6------------------------------------------------------------------------|
A|--4------------------------------------------------------------------------|
E|--5------------------------------------------------------------------------|

            
            
Suggest correction
Creating personal tab
Creating personal tab
You can edit any tab online and save it as your Personal.

You can edit, replace or remove any tab part or add personal notes – all changes will be seen only by you.

Personal tabs can be accessed anytime from any device, even offline.
Learn more »
Give kudos to tab author, rate the tab!
1 2 3 4 5
comments
print report bad tab
guest
You may want to rate the tab now too:
select rating
Wanna post a correction for this tab? Suggest correction